ISO-10303-21;
HEADER;
FILE_DESCRIPTION (( 'STEP AP214' ),
    '1' );
FILE_NAME ('03-0259.STEP',
    '2020-07-23T06:01:31',
    ( '' ),
    ( '' ),
    'SwSTEP 2.0',
    'SolidWorks 2014',
    '' );
FILE_SCHEMA (( 'AUTOMOTIVE_DESIGN' ));
ENDSEC;

DATA;
#1 = ADVANCED_FACE ( 'NONE', ( #76 ), #126, .T. ) ;
#2 = FACE_OUTER_BOUND ( 'NONE', #67, .T. ) ;
#3 = EDGE_CURVE ( 'NONE', #148, #29, #91, .T. ) ;
#4 = AXIS2_PLACEMENT_3D ( 'NONE', #184, #151, #137 ) ;
#5 = CARTESIAN_POINT ( 'NONE',  ( 0.0000000000000000000, 2.418079999999989100, 1.851084447999438400E-016 ) ) ;
#6 = CARTESIAN_POINT ( 'NONE',  ( 3.701617415102805800E-016, 3.022600000000013100, -101.5999999999999900 ) ) ;
#7 =( NAMED_UNIT ( * ) SI_UNIT ( $, .STERADIAN. ) SOLID_ANGLE_UNIT ( ) );
#8 = DIRECTION ( 'NONE',  ( 0.0000000000000000000, -1.000000000000000000, 0.0000000000000000000 ) ) ;
#9 = APPLICATION_CONTEXT ( 'automotive_design' ) ;
#10 =( NAMED_UNIT ( * ) PLANE_ANGLE_UNIT ( ) SI_UNIT ( $, .RADIAN. ) );
#11 = AXIS2_PLACEMENT_3D ( 'NONE', #26, #186, #58 ) ;
#12 = PRODUCT_DEFINITION_CONTEXT ( 'detailed design', #141, 'design' ) ;
#13 = LINE ( 'NONE', #5, #27 ) ;
#14 = ADVANCED_FACE ( 'NONE', ( #114 ), #70, .T. ) ;
#15 = COLOUR_RGB ( '',0.7921568627450980000, 0.8196078431372548800, 0.9333333333333333500 ) ;
#16 = AXIS2_PLACEMENT_3D ( 'NONE', #124, #138, #40 ) ;
#17 = MANIFOLD_SOLID_BREP ( '¸ðµû±â1', #160 ) ;
#18 = VECTOR ( 'NONE', #210, 999.9999999999998900 ) ;
#19 = ORIENTED_EDGE ( 'NONE', *, *, #166, .F. ) ;
#20 = DIRECTION ( 'NONE',  ( 0.0000000000000000000, 3.040874832300562500E-020, -1.000000000000000000 ) ) ;
#21 = CARTESIAN_POINT ( 'NONE',  ( 0.0000000000000000000, 3.089528829617371400E-018, -101.5999999999999900 ) ) ;
#22 = DIRECTION ( 'NONE',  ( 0.0000000000000000000, 0.7071067811865489100, -0.7071067811865462400 ) ) ;
#23 = DIRECTION ( 'NONE',  ( -0.0000000000000000000, -3.040874832300562500E-020, 1.000000000000000000 ) ) ;
#24 = ORIENTED_EDGE ( 'NONE', *, *, #92, .F. ) ;
#25 = ORIENTED_EDGE ( 'NONE', *, *, #179, .F. ) ;
#26 = CARTESIAN_POINT ( 'NONE',  ( 0.0000000000000000000, -5.626680131214598600E-036, 1.850349140137989600E-016 ) ) ;
#27 = VECTOR ( 'NONE', #22, 999.9999999999998900 ) ;
#28 = ADVANCED_BREP_SHAPE_REPRESENTATION ( '03-0259', ( #17, #156 ), #136 ) ;
#29 = VERTEX_POINT ( 'NONE', #171 ) ;
#30 = ADVANCED_FACE ( 'NONE', ( #48 ), #172, .T. ) ;
#31 = ORIENTED_EDGE ( 'NONE', *, *, #86, .F. ) ;
#32 =( NAMED_UNIT ( * ) PLANE_ANGLE_UNIT ( ) SI_UNIT ( $, .RADIAN. ) );
#33 = SHAPE_DEFINITION_REPRESENTATION ( #192, #28 ) ;
#34 = CIRCLE ( 'NONE', #16, 2.418079999999989100 ) ;
#35 = ORIENTED_EDGE ( 'NONE', *, *, #119, .T. ) ;
#36 = ORIENTED_EDGE ( 'NONE', *, *, #86, .T. ) ;
#37 = EDGE_LOOP ( 'NONE', ( #121, #35, #31 ) ) ;
#38 = SURFACE_STYLE_FILL_AREA ( #98 ) ;
#39 = VECTOR ( 'NONE', #181, 1000.000000000000100 ) ;
#40 = DIRECTION ( 'NONE',  ( 0.0000000000000000000, 1.000000000000000000, 3.040874832300763500E-020 ) ) ;
#41 = CARTESIAN_POINT ( 'NONE',  ( 0.0000000000000000000, 2.418079999999989100, 1.851084447999438400E-016 ) ) ;
#42 = COLOUR_RGB ( '',0.7921568627450980000, 0.8196078431372548800, 0.9333333333333333500 ) ;
#43 = CONICAL_SURFACE ( 'NONE', #66, 2414.213562373062800, 1.178097245096167800 ) ;
#44 = MECHANICAL_DESIGN_GEOMETRIC_PRESENTATION_REPRESENTATION (  '', ( #127 ), #195 ) ;
#45 = DIRECTION ( 'NONE',  ( -0.0000000000000000000, -3.040874832300562500E-020, 1.000000000000000000 ) ) ;
#46 = SURFACE_STYLE_USAGE ( .BOTH. , #140 ) ;
#47 = FILL_AREA_STYLE ('',( #100 ) ) ;
#48 = FACE_OUTER_BOUND ( 'NONE', #118, .T. ) ;
#49 = AXIS2_PLACEMENT_3D ( 'NONE', #102, #84, #8 ) ;
#50 = ADVANCED_FACE ( 'NONE', ( #164 ), #43, .T. ) ;
#51 = DIRECTION ( 'NONE',  ( -0.0000000000000000000, -3.040874832300562500E-020, 1.000000000000000000 ) ) ;
#52 = PRODUCT_RELATED_PRODUCT_CATEGORY ( 'part', '', ( #133 ) ) ;
#53 = DIRECTION ( 'NONE',  ( -0.0000000000000000000, -3.040874832300562500E-020, 1.000000000000000000 ) ) ;
#54 = DIRECTION ( 'NONE',  ( 0.0000000000000000000, -1.000000000000000000, 0.0000000000000000000 ) ) ;
#55 = CARTESIAN_POINT ( 'NONE',  ( 3.331455673592508100E-016, -2.418079999999989100, 1.849613832276540500E-016 ) ) ;
#56 = DIRECTION ( 'NONE',  ( -0.0000000000000000000, -3.040874832300562500E-020, 1.000000000000000000 ) ) ;
#57 = PRODUCT_DEFINITION ( 'UNKNOWN', '', #89, #12 ) ;
#58 = DIRECTION ( 'NONE',  ( 0.0000000000000000000, 1.000000000000000000, 3.040874832300763500E-020 ) ) ;
#59 = AXIS2_PLACEMENT_3D ( 'NONE', #105, #20, #135 ) ;
#60 = VECTOR ( 'NONE', #203, 1000.000000000000100 ) ;
#61 = ORIENTED_EDGE ( 'NONE', *, *, #202, .T. ) ;
#62 = CARTESIAN_POINT ( 'NONE',  ( 0.0000000000000000000, 0.0000000000000000000, 0.0000000000000000000 ) ) ;
#63 = DIRECTION ( 'NONE',  ( -0.0000000000000000000, -3.040874832300562500E-020, 1.000000000000000000 ) ) ;
#64 = DIRECTION ( 'NONE',  ( 0.0000000000000000000, 0.0000000000000000000, 1.000000000000000000 ) ) ;
#65 = UNCERTAINTY_MEASURE_WITH_UNIT (LENGTH_MEASURE( 1.000000000000000100E-005 ), #212, 'distance_accuracy_value', 'NONE');
#66 = AXIS2_PLACEMENT_3D ( 'NONE', #101, #51, #168 ) ;
#67 = EDGE_LOOP ( 'NONE', ( #36, #61, #199, #144 ) ) ;
#68 = VERTEX_POINT ( 'NONE', #90 ) ;
#69 = CARTESIAN_POINT ( 'NONE',  ( 4.606609261280993000E-050, 3.127600640708835400E-018, -102.8520019136289400 ) ) ;
#70 = CYLINDRICAL_SURFACE ( 'NONE', #103, 3.022600000000006400 ) ;
#71 = CIRCLE ( 'NONE', #183, 3.022600000000006400 ) ;
#72 = EDGE_LOOP ( 'NONE', ( #25, #19, #153, #167 ) ) ;
#73 = EDGE_LOOP ( 'NONE', ( #74, #123, #209, #205 ) ) ;
#74 = ORIENTED_EDGE ( 'NONE', *, *, #155, .F. ) ;
#75 = CARTESIAN_POINT ( 'NONE',  ( 0.0000000000000000000, 0.0000000000000000000, 0.0000000000000000000 ) ) ;
#76 = FACE_OUTER_BOUND ( 'NONE', #72, .T. ) ;
#77 = VECTOR ( 'NONE', #45, 1000.000000000000000 ) ;
#78 = ORIENTED_EDGE ( 'NONE', *, *, #119, .F. ) ;
#79 = VERTEX_POINT ( 'NONE', #147 ) ;
#80 = STYLED_ITEM ( 'NONE', ( #206 ), #17 ) ;
#81 = DIRECTION ( 'NONE',  ( 0.0000000000000000000, 3.040874832300562500E-020, -1.000000000000000000 ) ) ;
#82 = ORIENTED_EDGE ( 'NONE', *, *, #155, .T. ) ;
#83 = CARTESIAN_POINT ( 'NONE',  ( 0.0000000000000000000, 1.838269653622381100E-020, -0.6045200000000148200 ) ) ;
#84 = DIRECTION ( 'NONE',  ( -0.0000000000000000000, -3.040874832300562500E-020, 1.000000000000000000 ) ) ;
#85 = DIRECTION ( 'NONE',  ( 1.000000000000000000, 0.0000000000000000000, 0.0000000000000000000 ) ) ;
#86 = EDGE_CURVE ( 'NONE', #79, #112, #175, .T. ) ;
#87 = CIRCLE ( 'NONE', #117, 2.418079999999989100 ) ;
#88 = FACE_OUTER_BOUND ( 'NONE', #191, .T. ) ;
#89 = PRODUCT_DEFINITION_FORMATION_WITH_SPECIFIED_SOURCE ( 'ANY', '', #133, .NOT_KNOWN. ) ;
#90 = CARTESIAN_POINT ( 'NONE',  ( 0.0000000000000000000, 3.127600640708835400E-018, -102.8520019136289400 ) ) ;
#91 = CIRCLE ( 'NONE', #213, 3.022600000000006400 ) ;
#92 = EDGE_CURVE ( 'NONE', #112, #79, #128, .T. ) ;
#93 = PRESENTATION_LAYER_ASSIGNMENT (  '', '', ( #80 ) ) ;
#94 = PLANE ( 'NONE',  #59 ) ;
#95 = DIRECTION ( 'NONE',  ( 0.0000000000000000000, 3.040874832300562500E-020, -1.000000000000000000 ) ) ;
#96 = CARTESIAN_POINT ( 'NONE',  ( 0.0000000000000000000, -3.022600000000006400, -9.191348268111699600E-020 ) ) ;
#97 = DIRECTION ( 'NONE',  ( 0.0000000000000000000, 3.040874832300562500E-020, -1.000000000000000000 ) ) ;
#98 = FILL_AREA_STYLE ('',( #129 ) ) ;
#99 =( LENGTH_UNIT ( ) NAMED_UNIT ( * ) SI_UNIT ( .MILLI., .METRE. ) );
#100 = FILL_AREA_STYLE_COLOUR ( '', #15 ) ;
#101 = CARTESIAN_POINT ( 'NONE',  ( 0.0000000000000000000, -2.728114768229679100E-017, 897.1479980863709900 ) ) ;
#102 = CARTESIAN_POINT ( 'NONE',  ( 0.0000000000000000000, -2.728114768229679100E-017, 897.1479980863709900 ) ) ;
#103 = AXIS2_PLACEMENT_3D ( 'NONE', #62, #63, #139 ) ;
#104 = LINE ( 'NONE', #125, #60 ) ;
#105 = CARTESIAN_POINT ( 'NONE',  ( 0.0000000000000000000, 3.022599999999999700, 1.851268274964800700E-016 ) ) ;
#106 = ORIENTED_EDGE ( 'NONE', *, *, #182, .T. ) ;
#107 = VECTOR ( 'NONE', #177, 1000.000000000000000 ) ;
#108 = VERTEX_POINT ( 'NONE', #41 ) ;
#109 = ORIENTED_EDGE ( 'NONE', *, *, #166, .T. ) ;
#110 = CARTESIAN_POINT ( 'NONE',  ( 3.701617415102797400E-016, 3.022600000000006400, 9.191348268111699600E-020 ) ) ;
#111 = DIRECTION ( 'NONE',  ( 0.0000000000000000000, 1.000000000000000000, 3.040874832300763500E-020 ) ) ;
#112 = VERTEX_POINT ( 'NONE', #6 ) ;
#113 = SURFACE_SIDE_STYLE ('',( #190 ) ) ;
#114 = FACE_OUTER_BOUND ( 'NONE', #158, .T. ) ;
#115 = ADVANCED_FACE ( 'NONE', ( #2 ), #120, .T. ) ;
#116 = LINE ( 'NONE', #189, #18 ) ;
#117 = AXIS2_PLACEMENT_3D ( 'NONE', #150, #53, #152 ) ;
#118 = EDGE_LOOP ( 'NONE', ( #78, #197, #24 ) ) ;
#119 = EDGE_CURVE ( 'NONE', #68, #112, #132, .T. ) ;
#120 = CYLINDRICAL_SURFACE ( 'NONE', #200, 3.022600000000006400 ) ;
#121 = ORIENTED_EDGE ( 'NONE', *, *, #169, .F. ) ;
#122 = MECHANICAL_DESIGN_GEOMETRIC_PRESENTATION_REPRESENTATION (  '', ( #80 ), #198 ) ;
#123 = ORIENTED_EDGE ( 'NONE', *, *, #179, .T. ) ;
#124 = CARTESIAN_POINT ( 'NONE',  ( 0.0000000000000000000, -5.626680131214599900E-036, 1.850349140137989600E-016 ) ) ;
#125 = CARTESIAN_POINT ( 'NONE',  ( 0.0000000000000000000, 3.127600640708834600E-018, -102.8520019136289400 ) ) ;
#126 = CONICAL_SURFACE ( 'NONE', #11, 2.418079999999989100, 0.7853981633974501700 ) ;
#127 = STYLED_ITEM ( 'NONE', ( #180 ), #28 ) ;
#128 = CIRCLE ( 'NONE', #4, 3.022600000000012600 ) ;
#129 = FILL_AREA_STYLE_COLOUR ( '', #42 ) ;
#130 = CARTESIAN_POINT ( 'NONE',  ( 0.0000000000000000000, -5.626680131214598600E-036, 1.850349140137989600E-016 ) ) ;
#131 = PRODUCT_CONTEXT ( 'NONE', #9, 'mechanical' ) ;
#132 = LINE ( 'NONE', #69, #39 ) ;
#133 = PRODUCT ( '03-0259', '03-0259', '', ( #131 ) ) ;
#134 = AXIS2_PLACEMENT_3D ( 'NONE', #130, #81, #111 ) ;
#135 = DIRECTION ( 'NONE',  ( 0.0000000000000000000, 1.000000000000000000, 3.040874832300562500E-020 ) ) ;
#136 =( GEOMETRIC_REPRESENTATION_CONTEXT ( 3 ) GLOBAL_UNCERTAINTY_ASSIGNED_CONTEXT ( ( #65 ) ) GLOBAL_UNIT_ASSIGNED_CONTEXT ( ( #212, #32, #214 ) ) REPRESENTATION_CONTEXT ( 'NONE', 'WORKASPACE' ) );
#137 = DIRECTION ( 'NONE',  ( 0.0000000000000000000, -1.000000000000000000, 0.0000000000000000000 ) ) ;
#138 = DIRECTION ( 'NONE',  ( -0.0000000000000000000, -3.040874832300562500E-020, 1.000000000000000000 ) ) ;
#139 = DIRECTION ( 'NONE',  ( 0.0000000000000000000, -1.000000000000000000, -3.040874832300562500E-020 ) ) ;
#140 = SURFACE_SIDE_STYLE ('',( #38 ) ) ;
#141 = APPLICATION_CONTEXT ( 'automotive_design' ) ;
#142 = CARTESIAN_POINT ( 'NONE',  ( 0.0000000000000000000, 0.0000000000000000000, 0.0000000000000000000 ) ) ;
#143 = LINE ( 'NONE', #96, #77 ) ;
#144 = ORIENTED_EDGE ( 'NONE', *, *, #182, .F. ) ;
#145 = ORIENTED_EDGE ( 'NONE', *, *, #202, .F. ) ;
#146 = UNCERTAINTY_MEASURE_WITH_UNIT (LENGTH_MEASURE( 1.000000000000000100E-005 ), #99, 'distance_accuracy_value', 'NONE');
#147 = CARTESIAN_POINT ( 'NONE',  ( 0.0000000000000000000, -3.022600000000013100, -101.5999999999999900 ) ) ;
#148 = VERTEX_POINT ( 'NONE', #204 ) ;
#149 = CONICAL_SURFACE ( 'NONE', #134, 2.418079999999989100, 0.7853981633974501700 ) ;
#150 = CARTESIAN_POINT ( 'NONE',  ( 0.0000000000000000000, -5.626680131214599900E-036, 1.850349140137989600E-016 ) ) ;
#151 = DIRECTION ( 'NONE',  ( -0.0000000000000000000, -3.040874832300562500E-020, 1.000000000000000000 ) ) ;
#152 = DIRECTION ( 'NONE',  ( 0.0000000000000000000, 1.000000000000000000, 3.040874832300763500E-020 ) ) ;
#153 = ORIENTED_EDGE ( 'NONE', *, *, #174, .T. ) ;
#154 = AXIS2_PLACEMENT_3D ( 'NONE', #21, #56, #54 ) ;
#155 = EDGE_CURVE ( 'NONE', #165, #108, #87, .T. ) ;
#156 = AXIS2_PLACEMENT_3D ( 'NONE', #142, #64, #85 ) ;
#157 = CARTESIAN_POINT ( 'NONE',  ( 0.0000000000000000000, 1.838269653622381100E-020, -0.6045200000000148200 ) ) ;
#158 = EDGE_LOOP ( 'NONE', ( #145, #201, #106, #188 ) ) ;
#159 = APPLICATION_PROTOCOL_DEFINITION ( 'draft international standard', 'automotive_design', 1998, #141 ) ;
#160 = CLOSED_SHELL ( 'NONE', ( #176, #115, #50, #163, #30, #14, #1 ) ) ;
#161 = DIRECTION ( 'NONE',  ( 0.0000000000000000000, 1.000000000000000000, 0.0000000000000000000 ) ) ;
#162 =( NAMED_UNIT ( * ) SI_UNIT ( $, .STERADIAN. ) SOLID_ANGLE_UNIT ( ) );
#163 = ADVANCED_FACE ( 'NONE', ( #88 ), #94, .F. ) ;
#164 = FACE_OUTER_BOUND ( 'NONE', #37, .T. ) ;
#165 = VERTEX_POINT ( 'NONE', #55 ) ;
#166 = EDGE_CURVE ( 'NONE', #108, #165, #34, .T. ) ;
#167 = ORIENTED_EDGE ( 'NONE', *, *, #3, .F. ) ;
#168 = DIRECTION ( 'NONE',  ( 0.0000000000000000000, -1.000000000000000000, 0.0000000000000000000 ) ) ;
#169 = EDGE_CURVE ( 'NONE', #68, #79, #104, .T. ) ;
#170 = PRESENTATION_LAYER_ASSIGNMENT (  '', '', ( #127 ) ) ;
#171 = CARTESIAN_POINT ( 'NONE',  ( 3.701617415102797400E-016, 3.022600000000006400, -0.6045200000000148200 ) ) ;
#172 = CONICAL_SURFACE ( 'NONE', #49, 2414.213562373062800, 1.178097245096167800 ) ;
#173 = DIRECTION ( 'NONE',  ( 0.0000000000000000000, -1.000000000000000000, -3.040874832300562500E-020 ) ) ;
#174 = EDGE_CURVE ( 'NONE', #108, #29, #13, .T. ) ;
#175 = CIRCLE ( 'NONE', #154, 3.022600000000012600 ) ;
#176 = ADVANCED_FACE ( 'NONE', ( #187 ), #149, .T. ) ;
#177 = DIRECTION ( 'NONE',  ( -0.0000000000000000000, -3.040874832300562500E-020, 1.000000000000000000 ) ) ;
#178 = SURFACE_STYLE_USAGE ( .BOTH. , #113 ) ;
#179 = EDGE_CURVE ( 'NONE', #165, #148, #116, .T. ) ;
#180 = PRESENTATION_STYLE_ASSIGNMENT (( #178 ) ) ;
#181 = DIRECTION ( 'NONE',  ( 1.131426112287698000E-016, 0.9238795325112848500, 0.3826834323650940600 ) ) ;
#182 = EDGE_CURVE ( 'NONE', #79, #148, #143, .T. ) ;
#183 = AXIS2_PLACEMENT_3D ( 'NONE', #83, #97, #211 ) ;
#184 = CARTESIAN_POINT ( 'NONE',  ( 0.0000000000000000000, 3.089528829617371400E-018, -101.5999999999999900 ) ) ;
#185 = EDGE_CURVE ( 'NONE', #29, #148, #71, .T. ) ;
#186 = DIRECTION ( 'NONE',  ( 0.0000000000000000000, 3.040874832300562500E-020, -1.000000000000000000 ) ) ;
#187 = FACE_OUTER_BOUND ( 'NONE', #73, .T. ) ;
#188 = ORIENTED_EDGE ( 'NONE', *, *, #3, .T. ) ;
#189 = CARTESIAN_POINT ( 'NONE',  ( 2.961293932082218200E-016, -2.418079999999989100, 1.849613832276540500E-016 ) ) ;
#190 = SURFACE_STYLE_FILL_AREA ( #47 ) ;
#191 = EDGE_LOOP ( 'NONE', ( #109, #82 ) ) ;
#192 = PRODUCT_DEFINITION_SHAPE ( 'NONE', 'NONE',  #57 ) ;
#193 = APPLICATION_PROTOCOL_DEFINITION ( 'draft international standard', 'automotive_design', 1998, #9 ) ;
#194 = UNCERTAINTY_MEASURE_WITH_UNIT (LENGTH_MEASURE( 1.000000000000000100E-005 ), #208, 'distance_accuracy_value', 'NONE');
#195 =( GEOMETRIC_REPRESENTATION_CONTEXT ( 3 ) GLOBAL_UNCERTAINTY_ASSIGNED_CONTEXT ( ( #146 ) ) GLOBAL_UNIT_ASSIGNED_CONTEXT ( ( #99, #10, #162 ) ) REPRESENTATION_CONTEXT ( 'NONE', 'WORKASPACE' ) );
#196 = LINE ( 'NONE', #110, #107 ) ;
#197 = ORIENTED_EDGE ( 'NONE', *, *, #169, .T. ) ;
#198 =( GEOMETRIC_REPRESENTATION_CONTEXT ( 3 ) GLOBAL_UNCERTAINTY_ASSIGNED_CONTEXT ( ( #194 ) ) GLOBAL_UNIT_ASSIGNED_CONTEXT ( ( #208, #207, #7 ) ) REPRESENTATION_CONTEXT ( 'NONE', 'WORKASPACE' ) );
#199 = ORIENTED_EDGE ( 'NONE', *, *, #185, .T. ) ;
#200 = AXIS2_PLACEMENT_3D ( 'NONE', #75, #23, #173 ) ;
#201 = ORIENTED_EDGE ( 'NONE', *, *, #92, .T. ) ;
#202 = EDGE_CURVE ( 'NONE', #112, #29, #196, .T. ) ;
#203 = DIRECTION ( 'NONE',  ( 0.0000000000000000000, -0.9238795325112848500, 0.3826834323650940600 ) ) ;
#204 = CARTESIAN_POINT ( 'NONE',  ( 0.0000000000000000000, -3.022600000000006400, -0.6045200000000148200 ) ) ;
#205 = ORIENTED_EDGE ( 'NONE', *, *, #174, .F. ) ;
#206 = PRESENTATION_STYLE_ASSIGNMENT (( #46 ) ) ;
#207 =( NAMED_UNIT ( * ) PLANE_ANGLE_UNIT ( ) SI_UNIT ( $, .RADIAN. ) );
#208 =( LENGTH_UNIT ( ) NAMED_UNIT ( * ) SI_UNIT ( .MILLI., .METRE. ) );
#209 = ORIENTED_EDGE ( 'NONE', *, *, #185, .F. ) ;
#210 = DIRECTION ( 'NONE',  ( 8.659560562354950100E-017, -0.7071067811865489100, -0.7071067811865462400 ) ) ;
#211 = DIRECTION ( 'NONE',  ( 0.0000000000000000000, 1.000000000000000000, 0.0000000000000000000 ) ) ;
#212 =( LENGTH_UNIT ( ) NAMED_UNIT ( * ) SI_UNIT ( .MILLI., .METRE. ) );
#213 = AXIS2_PLACEMENT_3D ( 'NONE', #157, #95, #161 ) ;
#214 =( NAMED_UNIT ( * ) SI_UNIT ( $, .STERADIAN. ) SOLID_ANGLE_UNIT ( ) );
ENDSEC;
END-ISO-10303-21;
