ISO-10303-21;
HEADER;
FILE_DESCRIPTION (( 'STEP AP214' ),
    '1' );
FILE_NAME ('03-0263.STEP',
    '2020-07-23T06:04:15',
    ( '' ),
    ( '' ),
    'SwSTEP 2.0',
    'SolidWorks 2014',
    '' );
FILE_SCHEMA (( 'AUTOMOTIVE_DESIGN' ));
ENDSEC;

DATA;
#1 = CIRCLE ( 'NONE', #169, 3.263900000000013300 ) ;
#2 = CARTESIAN_POINT ( 'NONE',  ( 3.997124687737063500E-016, 3.263900000000013800, -104.7749999999999900 ) ) ;
#3 = CARTESIAN_POINT ( 'NONE',  ( 0.0000000000000000000, 4.971667507245229800E-036, 1.998968228898168100E-016 ) ) ;
#4 = PLANE ( 'NONE',  #69 ) ;
#5 = CONICAL_SURFACE ( 'NONE', #44, 2.611119999999994300, 0.7853981633974506100 ) ;
#6 =( GEOMETRIC_REPRESENTATION_CONTEXT ( 3 ) GLOBAL_UNCERTAINTY_ASSIGNED_CONTEXT ( ( #31 ) ) GLOBAL_UNIT_ASSIGNED_CONTEXT ( ( #17, #141, #160 ) ) REPRESENTATION_CONTEXT ( 'NONE', 'WORKASPACE' ) );
#7 = DIRECTION ( 'NONE',  ( 0.0000000000000000000, -1.000000000000000000, 0.0000000000000000000 ) ) ;
#8 = DIRECTION ( 'NONE',  ( 0.0000000000000000000, 1.000000000000000000, 0.0000000000000000000 ) ) ;
#9 = DIRECTION ( 'NONE',  ( 0.0000000000000000000, 1.000000000000000000, -2.487116821254366200E-020 ) ) ;
#10 = DIRECTION ( 'NONE',  ( -0.0000000000000000000, 2.487116821254139900E-020, 1.000000000000000000 ) ) ;
#11 = SURFACE_SIDE_STYLE ('',( #40 ) ) ;
#12 = EDGE_CURVE ( 'NONE', #201, #70, #136, .T. ) ;
#13 = ORIENTED_EDGE ( 'NONE', *, *, #130, .F. ) ;
#14 = ADVANCED_FACE ( 'NONE', ( #128 ), #166, .T. ) ;
#15 = ORIENTED_EDGE ( 'NONE', *, *, #130, .T. ) ;
#16 = DIRECTION ( 'NONE',  ( 0.0000000000000000000, 1.000000000000000000, -2.487116821254366200E-020 ) ) ;
#17 =( LENGTH_UNIT ( ) NAMED_UNIT ( * ) SI_UNIT ( .MILLI., .METRE. ) );
#18 = UNCERTAINTY_MEASURE_WITH_UNIT (LENGTH_MEASURE( 1.000000000000000100E-005 ), #105, 'distance_accuracy_value', 'NONE');
#19 = EDGE_CURVE ( 'NONE', #200, #70, #37, .T. ) ;
#20 = CARTESIAN_POINT ( 'NONE',  ( 0.0000000000000000000, 4.971667507245230400E-036, 1.998968228898168100E-016 ) ) ;
#21 = PRESENTATION_STYLE_ASSIGNMENT (( #46 ) ) ;
#22 = DIRECTION ( 'NONE',  ( -0.0000000000000000000, 2.487116821254139900E-020, 1.000000000000000000 ) ) ;
#23 = ORIENTED_EDGE ( 'NONE', *, *, #106, .T. ) ;
#24 = DIRECTION ( 'NONE',  ( 0.0000000000000000000, 0.7071067811865491300, -0.7071067811865459100 ) ) ;
#25 = DIRECTION ( 'NONE',  ( 0.0000000000000000000, 1.000000000000000000, 0.0000000000000000000 ) ) ;
#26 = EDGE_CURVE ( 'NONE', #127, #201, #210, .T. ) ;
#27 = ORIENTED_EDGE ( 'NONE', *, *, #126, .F. ) ;
#28 = PRESENTATION_STYLE_ASSIGNMENT (( #181 ) ) ;
#29 = PRESENTATION_LAYER_ASSIGNMENT (  '', '', ( #84 ) ) ;
#30 = LINE ( 'NONE', #144, #58 ) ;
#31 = UNCERTAINTY_MEASURE_WITH_UNIT (LENGTH_MEASURE( 1.000000000000000100E-005 ), #17, 'distance_accuracy_value', 'NONE');
#32 = APPLICATION_CONTEXT ( 'automotive_design' ) ;
#33 = ADVANCED_FACE ( 'NONE', ( #123 ), #159, .T. ) ;
#34 = DIRECTION ( 'NONE',  ( 0.0000000000000000000, 0.0000000000000000000, 1.000000000000000000 ) ) ;
#35 = EDGE_LOOP ( 'NONE', ( #66, #89, #13 ) ) ;
#36 = DIRECTION ( 'NONE',  ( 0.0000000000000000000, -2.487116821254139900E-020, -1.000000000000000000 ) ) ;
#37 = CIRCLE ( 'NONE', #167, 3.263900000000006700 ) ;
#38 = CARTESIAN_POINT ( 'NONE',  ( 0.0000000000000000000, 3.263900000000000000, 1.998156458838878800E-016 ) ) ;
#39 = CARTESIAN_POINT ( 'NONE',  ( 0.0000000000000000000, -3.263900000000006700, -0.6527800000000088000 ) ) ;
#40 = SURFACE_STYLE_FILL_AREA ( #68 ) ;
#41 = FILL_AREA_STYLE ('',( #81 ) ) ;
#42 = EDGE_LOOP ( 'NONE', ( #164, #80, #121, #148 ) ) ;
#43 = CARTESIAN_POINT ( 'NONE',  ( 0.0000000000000000000, 2.611119999999994300, 1.998318812850736600E-016 ) ) ;
#44 = AXIS2_PLACEMENT_3D ( 'NONE', #3, #36, #140 ) ;
#45 = DIRECTION ( 'NONE',  ( -0.0000000000000000000, 2.487116821254139900E-020, 1.000000000000000000 ) ) ;
#46 = SURFACE_STYLE_USAGE ( .BOTH. , #11 ) ;
#47 = PRODUCT_RELATED_PRODUCT_CATEGORY ( 'part', '', ( #63 ) ) ;
#48 = DIRECTION ( 'NONE',  ( 0.0000000000000000000, -1.000000000000000000, 0.0000000000000000000 ) ) ;
#49 = VECTOR ( 'NONE', #24, 1000.000000000000100 ) ;
#50 = CYLINDRICAL_SURFACE ( 'NONE', #103, 3.263900000000006700 ) ;
#51 = CARTESIAN_POINT ( 'NONE',  ( 0.0000000000000000000, 0.0000000000000000000, 0.0000000000000000000 ) ) ;
#52 = CIRCLE ( 'NONE', #114, 2.611119999999994300 ) ;
#53 = ORIENTED_EDGE ( 'NONE', *, *, #12, .F. ) ;
#54 = AXIS2_PLACEMENT_3D ( 'NONE', #51, #211, #100 ) ;
#55 = DIRECTION ( 'NONE',  ( 1.000000000000000000, 0.0000000000000000000, 0.0000000000000000000 ) ) ;
#56 = UNCERTAINTY_MEASURE_WITH_UNIT (LENGTH_MEASURE( 1.000000000000000100E-005 ), #116, 'distance_accuracy_value', 'NONE');
#57 = DIRECTION ( 'NONE',  ( 0.0000000000000000000, 1.000000000000000000, -2.487116821254139900E-020 ) ) ;
#58 = VECTOR ( 'NONE', #163, 1000.000000000000100 ) ;
#59 = PRODUCT_DEFINITION ( 'UNKNOWN', '', #86, #176 ) ;
#60 = AXIS2_PLACEMENT_3D ( 'NONE', #143, #112, #16 ) ;
#61 = SURFACE_SIDE_STYLE ('',( #90 ) ) ;
#62 =( NAMED_UNIT ( * ) PLANE_ANGLE_UNIT ( ) SI_UNIT ( $, .RADIAN. ) );
#63 = PRODUCT ( '03-0263', '03-0263', '', ( #91 ) ) ;
#64 = MECHANICAL_DESIGN_GEOMETRIC_PRESENTATION_REPRESENTATION (  '', ( #84 ), #186 ) ;
#65 = ORIENTED_EDGE ( 'NONE', *, *, #180, .F. ) ;
#66 = ORIENTED_EDGE ( 'NONE', *, *, #26, .F. ) ;
#67 = MANIFOLD_SOLID_BREP ( '¸ðµû±â1', #165 ) ;
#68 = FILL_AREA_STYLE ('',( #161 ) ) ;
#69 = AXIS2_PLACEMENT_3D ( 'NONE', #38, #158, #57 ) ;
#70 = VERTEX_POINT ( 'NONE', #193 ) ;
#71 = EDGE_LOOP ( 'NONE', ( #185, #107, #170, #97 ) ) ;
#72 = COLOUR_RGB ( '',0.7921568627450980000, 0.8196078431372548800, 0.9333333333333333500 ) ;
#73 = EDGE_CURVE ( 'NONE', #85, #183, #52, .T. ) ;
#74 = PRODUCT_DEFINITION_SHAPE ( 'NONE', 'NONE',  #59 ) ;
#75 = EDGE_LOOP ( 'NONE', ( #53, #15, #120, #194 ) ) ;
#76 = CARTESIAN_POINT ( 'NONE',  ( 0.0000000000000000000, -2.605876649469024900E-018, -104.7749999999999900 ) ) ;
#77 = EDGE_CURVE ( 'NONE', #85, #70, #152, .T. ) ;
#78 = CARTESIAN_POINT ( 'NONE',  ( 0.0000000000000000000, -3.263900000000013800, -104.7749999999999900 ) ) ;
#79 =( NAMED_UNIT ( * ) SI_UNIT ( $, .STERADIAN. ) SOLID_ANGLE_UNIT ( ) );
#80 = ORIENTED_EDGE ( 'NONE', *, *, #12, .T. ) ;
#81 = FILL_AREA_STYLE_COLOUR ( '', #72 ) ;
#82 = ORIENTED_EDGE ( 'NONE', *, *, #101, .F. ) ;
#83 = DIRECTION ( 'NONE',  ( -0.0000000000000000000, 2.487116821254139900E-020, 1.000000000000000000 ) ) ;
#84 = STYLED_ITEM ( 'NONE', ( #28 ), #67 ) ;
#85 = VERTEX_POINT ( 'NONE', #43 ) ;
#86 = PRODUCT_DEFINITION_FORMATION_WITH_SPECIFIED_SOURCE ( 'ANY', '', #63, .NOT_KNOWN. ) ;
#87 = CIRCLE ( 'NONE', #184, 3.263900000000013300 ) ;
#88 = AXIS2_PLACEMENT_3D ( 'NONE', #195, #10, #7 ) ;
#89 = ORIENTED_EDGE ( 'NONE', *, *, #126, .T. ) ;
#90 = SURFACE_STYLE_FILL_AREA ( #41 ) ;
#91 = PRODUCT_CONTEXT ( 'NONE', #188, 'mechanical' ) ;
#92 = STYLED_ITEM ( 'NONE', ( #21 ), #142 ) ;
#93 = CONICAL_SURFACE ( 'NONE', #191, 2414.213562373053700, 1.178097245096166400 ) ;
#94 = DIRECTION ( 'NONE',  ( 0.0000000000000000000, -1.000000000000000000, 0.0000000000000000000 ) ) ;
#95 = CARTESIAN_POINT ( 'NONE',  ( 0.0000000000000000000, 4.971667507245229800E-036, 1.998968228898168100E-016 ) ) ;
#96 = CARTESIAN_POINT ( 'NONE',  ( 0.0000000000000000000, -3.263900000000006700, 8.117700592891403800E-020 ) ) ;
#97 = ORIENTED_EDGE ( 'NONE', *, *, #19, .F. ) ;
#98 = CARTESIAN_POINT ( 'NONE',  ( 0.0000000000000000000, 2.611119999999994300, 1.998318812850736600E-016 ) ) ;
#99 = CARTESIAN_POINT ( 'NONE',  ( 0.0000000000000000000, 2.223166694626377600E-017, 893.8730483537705100 ) ) ;
#100 = DIRECTION ( 'NONE',  ( 0.0000000000000000000, -1.000000000000000000, 2.487116821254139900E-020 ) ) ;
#101 = EDGE_CURVE ( 'NONE', #70, #200, #104, .T. ) ;
#102 = FACE_OUTER_BOUND ( 'NONE', #117, .T. ) ;
#103 = AXIS2_PLACEMENT_3D ( 'NONE', #203, #111, #175 ) ;
#104 = CIRCLE ( 'NONE', #196, 3.263900000000006700 ) ;
#105 =( LENGTH_UNIT ( ) NAMED_UNIT ( * ) SI_UNIT ( .MILLI., .METRE. ) );
#106 = EDGE_CURVE ( 'NONE', #183, #200, #30, .T. ) ;
#107 = ORIENTED_EDGE ( 'NONE', *, *, #73, .F. ) ;
#108 = ORIENTED_EDGE ( 'NONE', *, *, #77, .F. ) ;
#109 = DIRECTION ( 'NONE',  ( 0.0000000000000000000, 1.000000000000000000, -2.487116821254366200E-020 ) ) ;
#110 = AXIS2_PLACEMENT_3D ( 'NONE', #139, #34, #55 ) ;
#111 = DIRECTION ( 'NONE',  ( -0.0000000000000000000, 2.487116821254139900E-020, 1.000000000000000000 ) ) ;
#112 = DIRECTION ( 'NONE',  ( -0.0000000000000000000, 2.487116821254139900E-020, 1.000000000000000000 ) ) ;
#113 = DIRECTION ( 'NONE',  ( 0.0000000000000000000, -2.487116821254139900E-020, -1.000000000000000000 ) ) ;
#114 = AXIS2_PLACEMENT_3D ( 'NONE', #20, #45, #9 ) ;
#115 = CARTESIAN_POINT ( 'NONE',  ( 0.0000000000000000000, -1.623540118578299400E-020, -0.6527800000000088000 ) ) ;
#116 =( LENGTH_UNIT ( ) NAMED_UNIT ( * ) SI_UNIT ( .MILLI., .METRE. ) );
#117 = EDGE_LOOP ( 'NONE', ( #154, #208 ) ) ;
#118 = VECTOR ( 'NONE', #83, 1000.000000000000000 ) ;
#119 = COLOUR_RGB ( '',0.7921568627450980000, 0.8196078431372548800, 0.9333333333333333500 ) ;
#120 = ORIENTED_EDGE ( 'NONE', *, *, #151, .T. ) ;
#121 = ORIENTED_EDGE ( 'NONE', *, *, #101, .T. ) ;
#122 = CARTESIAN_POINT ( 'NONE',  ( 3.597412218963342300E-016, -2.611119999999994300, 1.999617644945599300E-016 ) ) ;
#123 = FACE_OUTER_BOUND ( 'NONE', #35, .T. ) ;
#124 = DIRECTION ( 'NONE',  ( 0.0000000000000000000, -2.487116821254139900E-020, -1.000000000000000000 ) ) ;
#125 = FACE_OUTER_BOUND ( 'NONE', #75, .T. ) ;
#126 = EDGE_CURVE ( 'NONE', #127, #178, #134, .T. ) ;
#127 = VERTEX_POINT ( 'NONE', #192 ) ;
#128 = FACE_OUTER_BOUND ( 'NONE', #42, .T. ) ;
#129 = DIRECTION ( 'NONE',  ( 0.0000000000000000000, -2.487116821254139900E-020, -1.000000000000000000 ) ) ;
#130 = EDGE_CURVE ( 'NONE', #201, #178, #87, .T. ) ;
#131 = CONICAL_SURFACE ( 'NONE', #199, 2.611119999999994300, 0.7853981633974506100 ) ;
#132 = DIRECTION ( 'NONE',  ( 1.131426112287697500E-016, 0.9238795325112844100, 0.3826834323650953300 ) ) ;
#133 = ADVANCED_FACE ( 'NONE', ( #149 ), #93, .T. ) ;
#134 = LINE ( 'NONE', #205, #182 ) ;
#135 = CIRCLE ( 'NONE', #60, 2.611119999999994300 ) ;
#136 = LINE ( 'NONE', #168, #118 ) ;
#137 = EDGE_LOOP ( 'NONE', ( #172, #23, #82, #108 ) ) ;
#138 = EDGE_CURVE ( 'NONE', #183, #85, #135, .T. ) ;
#139 = CARTESIAN_POINT ( 'NONE',  ( 0.0000000000000000000, 0.0000000000000000000, 0.0000000000000000000 ) ) ;
#140 = DIRECTION ( 'NONE',  ( 0.0000000000000000000, 1.000000000000000000, -2.487116821254366200E-020 ) ) ;
#141 =( NAMED_UNIT ( * ) PLANE_ANGLE_UNIT ( ) SI_UNIT ( $, .RADIAN. ) );
#142 = ADVANCED_BREP_SHAPE_REPRESENTATION ( '03-0263', ( #67, #110 ), #6 ) ;
#143 = CARTESIAN_POINT ( 'NONE',  ( 0.0000000000000000000, 4.971667507245230400E-036, 1.998968228898168100E-016 ) ) ;
#144 = CARTESIAN_POINT ( 'NONE',  ( 3.197699750189630100E-016, -2.611119999999994300, 1.999617644945599300E-016 ) ) ;
#145 = SHAPE_DEFINITION_REPRESENTATION ( #74, #142 ) ;
#146 = PRESENTATION_LAYER_ASSIGNMENT (  '', '', ( #92 ) ) ;
#147 = CARTESIAN_POINT ( 'NONE',  ( 0.0000000000000000000, -2.605876649469024900E-018, -104.7749999999999900 ) ) ;
#148 = ORIENTED_EDGE ( 'NONE', *, *, #151, .F. ) ;
#149 = FACE_OUTER_BOUND ( 'NONE', #157, .T. ) ;
#150 = CARTESIAN_POINT ( 'NONE',  ( 0.0000000000000000000, -2.639501266277622700E-018, -106.1269516462295700 ) ) ;
#151 = EDGE_CURVE ( 'NONE', #178, #200, #171, .T. ) ;
#152 = LINE ( 'NONE', #98, #49 ) ;
#153 = ORIENTED_EDGE ( 'NONE', *, *, #26, .T. ) ;
#154 = ORIENTED_EDGE ( 'NONE', *, *, #73, .T. ) ;
#155 =( NAMED_UNIT ( * ) PLANE_ANGLE_UNIT ( ) SI_UNIT ( $, .RADIAN. ) );
#156 = APPLICATION_PROTOCOL_DEFINITION ( 'draft international standard', 'automotive_design', 1998, #188 ) ;
#157 = EDGE_LOOP ( 'NONE', ( #27, #153, #65 ) ) ;
#158 = DIRECTION ( 'NONE',  ( 0.0000000000000000000, -2.487116821254139900E-020, -1.000000000000000000 ) ) ;
#159 = CONICAL_SURFACE ( 'NONE', #88, 2414.213562373053700, 1.178097245096166400 ) ;
#160 =( NAMED_UNIT ( * ) SI_UNIT ( $, .STERADIAN. ) SOLID_ANGLE_UNIT ( ) );
#161 = FILL_AREA_STYLE_COLOUR ( '', #119 ) ;
#162 = DIRECTION ( 'NONE',  ( -0.0000000000000000000, 2.487116821254139900E-020, 1.000000000000000000 ) ) ;
#163 = DIRECTION ( 'NONE',  ( 8.659560562354955000E-017, -0.7071067811865491300, -0.7071067811865459100 ) ) ;
#164 = ORIENTED_EDGE ( 'NONE', *, *, #180, .T. ) ;
#165 = CLOSED_SHELL ( 'NONE', ( #187, #14, #133, #213, #33, #214, #174 ) ) ;
#166 = CYLINDRICAL_SURFACE ( 'NONE', #54, 3.263900000000006700 ) ;
#167 = AXIS2_PLACEMENT_3D ( 'NONE', #209, #129, #25 ) ;
#168 = CARTESIAN_POINT ( 'NONE',  ( 3.997124687737054100E-016, 3.263900000000006700, -8.117700592891403800E-020 ) ) ;
#169 = AXIS2_PLACEMENT_3D ( 'NONE', #76, #190, #94 ) ;
#170 = ORIENTED_EDGE ( 'NONE', *, *, #77, .T. ) ;
#171 = LINE ( 'NONE', #96, #204 ) ;
#172 = ORIENTED_EDGE ( 'NONE', *, *, #138, .F. ) ;
#173 = APPLICATION_PROTOCOL_DEFINITION ( 'draft international standard', 'automotive_design', 1998, #32 ) ;
#174 = ADVANCED_FACE ( 'NONE', ( #177 ), #5, .T. ) ;
#175 = DIRECTION ( 'NONE',  ( 0.0000000000000000000, -1.000000000000000000, 2.487116821254139900E-020 ) ) ;
#176 = PRODUCT_DEFINITION_CONTEXT ( 'detailed design', #32, 'design' ) ;
#177 = FACE_OUTER_BOUND ( 'NONE', #71, .T. ) ;
#178 = VERTEX_POINT ( 'NONE', #78 ) ;
#179 = DIRECTION ( 'NONE',  ( 0.0000000000000000000, -1.000000000000000000, 0.0000000000000000000 ) ) ;
#180 = EDGE_CURVE ( 'NONE', #178, #201, #1, .T. ) ;
#181 = SURFACE_STYLE_USAGE ( .BOTH. , #61 ) ;
#182 = VECTOR ( 'NONE', #206, 1000.000000000000200 ) ;
#183 = VERTEX_POINT ( 'NONE', #122 ) ;
#184 = AXIS2_PLACEMENT_3D ( 'NONE', #147, #22, #48 ) ;
#185 = ORIENTED_EDGE ( 'NONE', *, *, #106, .F. ) ;
#186 =( GEOMETRIC_REPRESENTATION_CONTEXT ( 3 ) GLOBAL_UNCERTAINTY_ASSIGNED_CONTEXT ( ( #56 ) ) GLOBAL_UNIT_ASSIGNED_CONTEXT ( ( #116, #62, #79 ) ) REPRESENTATION_CONTEXT ( 'NONE', 'WORKASPACE' ) );
#187 = ADVANCED_FACE ( 'NONE', ( #212 ), #131, .T. ) ;
#188 = APPLICATION_CONTEXT ( 'automotive_design' ) ;
#189 =( NAMED_UNIT ( * ) SI_UNIT ( $, .STERADIAN. ) SOLID_ANGLE_UNIT ( ) );
#190 = DIRECTION ( 'NONE',  ( -0.0000000000000000000, 2.487116821254139900E-020, 1.000000000000000000 ) ) ;
#191 = AXIS2_PLACEMENT_3D ( 'NONE', #99, #162, #179 ) ;
#192 = CARTESIAN_POINT ( 'NONE',  ( 0.0000000000000000000, -2.639501266277622700E-018, -106.1269516462295700 ) ) ;
#193 = CARTESIAN_POINT ( 'NONE',  ( 3.997124687737054100E-016, 3.263900000000006700, -0.6527800000000088000 ) ) ;
#194 = ORIENTED_EDGE ( 'NONE', *, *, #19, .T. ) ;
#195 = CARTESIAN_POINT ( 'NONE',  ( 0.0000000000000000000, 2.223166694626377600E-017, 893.8730483537705100 ) ) ;
#196 = AXIS2_PLACEMENT_3D ( 'NONE', #115, #113, #8 ) ;
#197 = MECHANICAL_DESIGN_GEOMETRIC_PRESENTATION_REPRESENTATION (  '', ( #92 ), #207 ) ;
#198 = VECTOR ( 'NONE', #132, 1000.000000000000200 ) ;
#199 = AXIS2_PLACEMENT_3D ( 'NONE', #95, #124, #109 ) ;
#200 = VERTEX_POINT ( 'NONE', #39 ) ;
#201 = VERTEX_POINT ( 'NONE', #2 ) ;
#202 = DIRECTION ( 'NONE',  ( -0.0000000000000000000, 2.487116821254139900E-020, 1.000000000000000000 ) ) ;
#203 = CARTESIAN_POINT ( 'NONE',  ( 0.0000000000000000000, 0.0000000000000000000, 0.0000000000000000000 ) ) ;
#204 = VECTOR ( 'NONE', #202, 1000.000000000000000 ) ;
#205 = CARTESIAN_POINT ( 'NONE',  ( 0.0000000000000000000, -2.639501266277622700E-018, -106.1269516462295700 ) ) ;
#206 = DIRECTION ( 'NONE',  ( 0.0000000000000000000, -0.9238795325112844100, 0.3826834323650953300 ) ) ;
#207 =( GEOMETRIC_REPRESENTATION_CONTEXT ( 3 ) GLOBAL_UNCERTAINTY_ASSIGNED_CONTEXT ( ( #18 ) ) GLOBAL_UNIT_ASSIGNED_CONTEXT ( ( #105, #155, #189 ) ) REPRESENTATION_CONTEXT ( 'NONE', 'WORKASPACE' ) );
#208 = ORIENTED_EDGE ( 'NONE', *, *, #138, .T. ) ;
#209 = CARTESIAN_POINT ( 'NONE',  ( 0.0000000000000000000, -1.623540118578299400E-020, -0.6527800000000088000 ) ) ;
#210 = LINE ( 'NONE', #150, #198 ) ;
#211 = DIRECTION ( 'NONE',  ( -0.0000000000000000000, 2.487116821254139900E-020, 1.000000000000000000 ) ) ;
#212 = FACE_OUTER_BOUND ( 'NONE', #137, .T. ) ;
#213 = ADVANCED_FACE ( 'NONE', ( #102 ), #4, .F. ) ;
#214 = ADVANCED_FACE ( 'NONE', ( #125 ), #50, .T. ) ;
ENDSEC;
END-ISO-10303-21;
