ISO-10303-21;
HEADER;
FILE_DESCRIPTION (( 'STEP AP214' ),
    '1' );
FILE_NAME ('03-0290.STEP',
    '2020-07-23T06:22:39',
    ( '' ),
    ( '' ),
    'SwSTEP 2.0',
    'SolidWorks 2014',
    '' );
FILE_SCHEMA (( 'AUTOMOTIVE_DESIGN' ));
ENDSEC;

DATA;
#1 = CONICAL_SURFACE ( 'NONE', #54, 2414.213562373073700, 1.178097245096169300 ) ;
#2 = CARTESIAN_POINT ( 'NONE',  ( 0.0000000000000000000, 2.316600391800457800E-018, -92.07499999999998900 ) ) ;
#3 = DIRECTION ( 'NONE',  ( 0.0000000000000000000, 2.515992823025206100E-020, -1.000000000000000000 ) ) ;
#4 = DIRECTION ( 'NONE',  ( -0.0000000000000000000, -2.515992823025205800E-020, 1.000000000000000000 ) ) ;
#5 = ORIENTED_EDGE ( 'NONE', *, *, #27, .T. ) ;
#6 = PRODUCT_CONTEXT ( 'NONE', #88, 'mechanical' ) ;
#7 = ORIENTED_EDGE ( 'NONE', *, *, #205, .T. ) ;
#8 = EDGE_LOOP ( 'NONE', ( #57, #5, #101 ) ) ;
#9 = ADVANCED_FACE ( 'NONE', ( #98 ), #107, .T. ) ;
#10 = EDGE_CURVE ( 'NONE', #14, #118, #103, .T. ) ;
#11 = EDGE_CURVE ( 'NONE', #174, #135, #71, .T. ) ;
#12 = DIRECTION ( 'NONE',  ( 0.0000000000000000000, 2.515992823025206100E-020, -1.000000000000000000 ) ) ;
#13 = LINE ( 'NONE', #69, #173 ) ;
#14 = VERTEX_POINT ( 'NONE', #144 ) ;
#15 = ORIENTED_EDGE ( 'NONE', *, *, #171, .F. ) ;
#16 = CARTESIAN_POINT ( 'NONE',  ( 0.0000000000000000000, -2.552700000000005500, -6.422574879336456200E-020 ) ) ;
#17 = DIRECTION ( 'NONE',  ( -0.0000000000000000000, -2.515992823025205800E-020, 1.000000000000000000 ) ) ;
#18 = PRESENTATION_LAYER_ASSIGNMENT (  '', '', ( #182 ) ) ;
#19 = CARTESIAN_POINT ( 'NONE',  ( 0.0000000000000000000, 2.343203568004237200E-018, -93.13236296066980900 ) ) ;
#20 = DIRECTION ( 'NONE',  ( -0.0000000000000000000, -2.515992823025205800E-020, 1.000000000000000000 ) ) ;
#21 = AXIS2_PLACEMENT_3D ( 'NONE', #146, #113, #92 ) ;
#22 = FACE_OUTER_BOUND ( 'NONE', #56, .T. ) ;
#23 = DIRECTION ( 'NONE',  ( -0.0000000000000000000, -2.515992823025205800E-020, 1.000000000000000000 ) ) ;
#24 = CARTESIAN_POINT ( 'NONE',  ( 0.0000000000000000000, 1.284514975867286600E-020, -0.5105399999999992200 ) ) ;
#25 = EDGE_CURVE ( 'NONE', #159, #95, #51, .T. ) ;
#26 = PRODUCT_DEFINITION_SHAPE ( 'NONE', 'NONE',  #152 ) ;
#27 = EDGE_CURVE ( 'NONE', #147, #174, #154, .T. ) ;
#28 =( LENGTH_UNIT ( ) NAMED_UNIT ( * ) SI_UNIT ( .MILLI., .METRE. ) );
#29 = AXIS2_PLACEMENT_3D ( 'NONE', #163, #151, #186 ) ;
#30 = EDGE_CURVE ( 'NONE', #159, #118, #117, .T. ) ;
#31 = PRESENTATION_STYLE_ASSIGNMENT (( #116 ) ) ;
#32 = DIRECTION ( 'NONE',  ( 0.0000000000000000000, 1.000000000000000000, 2.515992823025503100E-020 ) ) ;
#33 = CYLINDRICAL_SURFACE ( 'NONE', #126, 2.552700000000005500 ) ;
#34 = FILL_AREA_STYLE ('',( #50 ) ) ;
#35 = SURFACE_SIDE_STYLE ('',( #191 ) ) ;
#36 =( LENGTH_UNIT ( ) NAMED_UNIT ( * ) SI_UNIT ( .MILLI., .METRE. ) );
#37 = DIRECTION ( 'NONE',  ( 0.0000000000000000000, 1.000000000000000000, 2.515992823025205800E-020 ) ) ;
#38 = FILL_AREA_STYLE ('',( #112 ) ) ;
#39 = PLANE ( 'NONE',  #75 ) ;
#40 = LINE ( 'NONE', #110, #89 ) ;
#41 = ORIENTED_EDGE ( 'NONE', *, *, #25, .T. ) ;
#42 = CYLINDRICAL_SURFACE ( 'NONE', #84, 2.552700000000005500 ) ;
#43 =( GEOMETRIC_REPRESENTATION_CONTEXT ( 3 ) GLOBAL_UNCERTAINTY_ASSIGNED_CONTEXT ( ( #192 ) ) GLOBAL_UNIT_ASSIGNED_CONTEXT ( ( #28, #123, #102 ) ) REPRESENTATION_CONTEXT ( 'NONE', 'WORKASPACE' ) );
#44 = STYLED_ITEM ( 'NONE', ( #106 ), #142 ) ;
#45 = FACE_OUTER_BOUND ( 'NONE', #202, .T. ) ;
#46 = EDGE_CURVE ( 'NONE', #118, #14, #68, .T. ) ;
#47 = ORIENTED_EDGE ( 'NONE', *, *, #208, .T. ) ;
#48 = MECHANICAL_DESIGN_GEOMETRIC_PRESENTATION_REPRESENTATION (  '', ( #44 ), #109 ) ;
#49 = CARTESIAN_POINT ( 'NONE',  ( 0.0000000000000000000, 2.343203568004237200E-018, -93.13236296066980900 ) ) ;
#50 = FILL_AREA_STYLE_COLOUR ( '', #120 ) ;
#51 = CIRCLE ( 'NONE', #136, 2.042160000000015100 ) ;
#52 = DIRECTION ( 'NONE',  ( 0.0000000000000000000, 0.7071067811865412400, -0.7071067811865536800 ) ) ;
#53 = FACE_OUTER_BOUND ( 'NONE', #59, .T. ) ;
#54 = AXIS2_PLACEMENT_3D ( 'NONE', #178, #55, #130 ) ;
#55 = DIRECTION ( 'NONE',  ( -0.0000000000000000000, -2.515992823025205800E-020, 1.000000000000000000 ) ) ;
#56 = EDGE_LOOP ( 'NONE', ( #153, #77, #104 ) ) ;
#57 = ORIENTED_EDGE ( 'NONE', *, *, #78, .F. ) ;
#58 = ORIENTED_EDGE ( 'NONE', *, *, #46, .T. ) ;
#59 = EDGE_LOOP ( 'NONE', ( #7, #41 ) ) ;
#60 = CARTESIAN_POINT ( 'NONE',  ( 2.500924707346777300E-016, -2.042160000000015100, 1.562243007357410300E-016 ) ) ;
#61 = VECTOR ( 'NONE', #83, 1000.000000000000000 ) ;
#62 = AXIS2_PLACEMENT_3D ( 'NONE', #2, #193, #161 ) ;
#63 = DIRECTION ( 'NONE',  ( 0.0000000000000000000, 1.000000000000000000, 2.515992823025503100E-020 ) ) ;
#64 = CARTESIAN_POINT ( 'NONE',  ( 0.0000000000000000000, 0.0000000000000000000, 0.0000000000000000000 ) ) ;
#65 = CARTESIAN_POINT ( 'NONE',  ( 0.0000000000000000000, -3.931884926516698400E-036, 1.562756813347757100E-016 ) ) ;
#66 = PRODUCT_DEFINITION_FORMATION_WITH_SPECIFIED_SOURCE ( 'ANY', '', #121, .NOT_KNOWN. ) ;
#67 =( NAMED_UNIT ( * ) SI_UNIT ( $, .STERADIAN. ) SOLID_ANGLE_UNIT ( ) );
#68 = CIRCLE ( 'NONE', #166, 2.552700000000005500 ) ;
#69 = CARTESIAN_POINT ( 'NONE',  ( 0.0000000000000000000, 2.343203568004237200E-018, -93.13236296066980900 ) ) ;
#70 = CARTESIAN_POINT ( 'NONE',  ( 0.0000000000000000000, -2.552700000000005500, -0.5105399999999992200 ) ) ;
#71 = CIRCLE ( 'NONE', #21, 2.552700000000010800 ) ;
#72 = CLOSED_SHELL ( 'NONE', ( #206, #188, #125, #76, #127, #139, #9 ) ) ;
#73 = LINE ( 'NONE', #16, #167 ) ;
#74 = ORIENTED_EDGE ( 'NONE', *, *, #25, .F. ) ;
#75 = AXIS2_PLACEMENT_3D ( 'NONE', #149, #133, #37 ) ;
#76 = ADVANCED_FACE ( 'NONE', ( #53 ), #39, .F. ) ;
#77 = ORIENTED_EDGE ( 'NONE', *, *, #78, .T. ) ;
#78 = EDGE_CURVE ( 'NONE', #147, #135, #13, .T. ) ;
#79 = CONICAL_SURFACE ( 'NONE', #185, 2.042160000000015100, 0.7853981633974394000 ) ;
#80 = DIRECTION ( 'NONE',  ( -0.0000000000000000000, -2.515992823025205800E-020, 1.000000000000000000 ) ) ;
#81 = DIRECTION ( 'NONE',  ( 0.0000000000000000000, -1.000000000000000000, 0.0000000000000000000 ) ) ;
#82 =( NAMED_UNIT ( * ) PLANE_ANGLE_UNIT ( ) SI_UNIT ( $, .RADIAN. ) );
#83 = DIRECTION ( 'NONE',  ( 0.0000000000000000000, -0.9238795325112855200, 0.3826834323650926700 ) ) ;
#84 = AXIS2_PLACEMENT_3D ( 'NONE', #212, #96, #140 ) ;
#85 = DIRECTION ( 'NONE',  ( 1.131426112287698800E-016, 0.9238795325112855200, 0.3826834323650926700 ) ) ;
#86 = AXIS2_PLACEMENT_3D ( 'NONE', #145, #162, #143 ) ;
#87 = ORIENTED_EDGE ( 'NONE', *, *, #190, .F. ) ;
#88 = APPLICATION_CONTEXT ( 'automotive_design' ) ;
#89 = VECTOR ( 'NONE', #20, 1000.000000000000000 ) ;
#90 = PRESENTATION_LAYER_ASSIGNMENT (  '', '', ( #44 ) ) ;
#91 = FACE_OUTER_BOUND ( 'NONE', #176, .T. ) ;
#92 = DIRECTION ( 'NONE',  ( 0.0000000000000000000, -1.000000000000000000, 0.0000000000000000000 ) ) ;
#93 = ORIENTED_EDGE ( 'NONE', *, *, #30, .T. ) ;
#94 = CARTESIAN_POINT ( 'NONE',  ( 3.126155884183461600E-016, 2.552700000000010800, -92.07499999999998900 ) ) ;
#95 = VERTEX_POINT ( 'NONE', #201 ) ;
#96 = DIRECTION ( 'NONE',  ( -0.0000000000000000000, -2.515992823025205800E-020, 1.000000000000000000 ) ) ;
#97 =( LENGTH_UNIT ( ) NAMED_UNIT ( * ) SI_UNIT ( .MILLI., .METRE. ) );
#98 = FACE_OUTER_BOUND ( 'NONE', #129, .T. ) ;
#99 = DIRECTION ( 'NONE',  ( 8.659560562354855200E-017, -0.7071067811865412400, -0.7071067811865536800 ) ) ;
#100 = SURFACE_SIDE_STYLE ('',( #207 ) ) ;
#101 = ORIENTED_EDGE ( 'NONE', *, *, #196, .F. ) ;
#102 =( NAMED_UNIT ( * ) SI_UNIT ( $, .STERADIAN. ) SOLID_ANGLE_UNIT ( ) );
#103 = CIRCLE ( 'NONE', #210, 2.552700000000005500 ) ;
#104 = ORIENTED_EDGE ( 'NONE', *, *, #11, .F. ) ;
#105 =( GEOMETRIC_REPRESENTATION_CONTEXT ( 3 ) GLOBAL_UNCERTAINTY_ASSIGNED_CONTEXT ( ( #180 ) ) GLOBAL_UNIT_ASSIGNED_CONTEXT ( ( #36, #114, #67 ) ) REPRESENTATION_CONTEXT ( 'NONE', 'WORKASPACE' ) );
#106 = PRESENTATION_STYLE_ASSIGNMENT (( #131 ) ) ;
#107 = CONICAL_SURFACE ( 'NONE', #111, 2.042160000000015100, 0.7853981633974394000 ) ;
#108 = ORIENTED_EDGE ( 'NONE', *, *, #171, .T. ) ;
#109 =( GEOMETRIC_REPRESENTATION_CONTEXT ( 3 ) GLOBAL_UNCERTAINTY_ASSIGNED_CONTEXT ( ( #148 ) ) GLOBAL_UNIT_ASSIGNED_CONTEXT ( ( #97, #82, #197 ) ) REPRESENTATION_CONTEXT ( 'NONE', 'WORKASPACE' ) );
#110 = CARTESIAN_POINT ( 'NONE',  ( 3.126155884183455200E-016, 2.552700000000005500, 6.422574879336456200E-020 ) ) ;
#111 = AXIS2_PLACEMENT_3D ( 'NONE', #158, #12, #32 ) ;
#112 = FILL_AREA_STYLE_COLOUR ( '', #124 ) ;
#113 = DIRECTION ( 'NONE',  ( -0.0000000000000000000, -2.515992823025205800E-020, 1.000000000000000000 ) ) ;
#114 =( NAMED_UNIT ( * ) PLANE_ANGLE_UNIT ( ) SI_UNIT ( $, .RADIAN. ) );
#115 = CARTESIAN_POINT ( 'NONE',  ( 0.0000000000000000000, -3.931884926516697000E-036, 1.562756813347757100E-016 ) ) ;
#116 = SURFACE_STYLE_USAGE ( .BOTH. , #100 ) ;
#117 = LINE ( 'NONE', #60, #177 ) ;
#118 = VERTEX_POINT ( 'NONE', #70 ) ;
#119 = SHAPE_DEFINITION_REPRESENTATION ( #26, #169 ) ;
#120 = COLOUR_RGB ( '',0.7921568627450980000, 0.8196078431372548800, 0.9333333333333333500 ) ;
#121 = PRODUCT ( '03-0290', '03-0290', '', ( #6 ) ) ;
#122 = APPLICATION_CONTEXT ( 'automotive_design' ) ;
#123 =( NAMED_UNIT ( * ) PLANE_ANGLE_UNIT ( ) SI_UNIT ( $, .RADIAN. ) );
#124 = COLOUR_RGB ( '',0.7921568627450980000, 0.8196078431372548800, 0.9333333333333333500 ) ;
#125 = ADVANCED_FACE ( 'NONE', ( #22 ), #1, .T. ) ;
#126 = AXIS2_PLACEMENT_3D ( 'NONE', #64, #80, #141 ) ;
#127 = ADVANCED_FACE ( 'NONE', ( #156 ), #172, .T. ) ;
#128 = CIRCLE ( 'NONE', #62, 2.552700000000010800 ) ;
#129 = EDGE_LOOP ( 'NONE', ( #187, #184, #47, #150 ) ) ;
#130 = DIRECTION ( 'NONE',  ( 0.0000000000000000000, -1.000000000000000000, 0.0000000000000000000 ) ) ;
#131 = SURFACE_STYLE_USAGE ( .BOTH. , #35 ) ;
#132 = CARTESIAN_POINT ( 'NONE',  ( 0.0000000000000000000, -2.552700000000010800, -92.07499999999998900 ) ) ;
#133 = DIRECTION ( 'NONE',  ( 0.0000000000000000000, 2.515992823025205800E-020, -1.000000000000000000 ) ) ;
#134 = DIRECTION ( 'NONE',  ( 0.0000000000000000000, 1.000000000000000000, 0.0000000000000000000 ) ) ;
#135 = VERTEX_POINT ( 'NONE', #94 ) ;
#136 = AXIS2_PLACEMENT_3D ( 'NONE', #115, #23, #157 ) ;
#137 = ORIENTED_EDGE ( 'NONE', *, *, #10, .T. ) ;
#138 = VECTOR ( 'NONE', #52, 1000.000000000000100 ) ;
#139 = ADVANCED_FACE ( 'NONE', ( #91 ), #33, .T. ) ;
#140 = DIRECTION ( 'NONE',  ( 0.0000000000000000000, -1.000000000000000000, -2.515992823025205500E-020 ) ) ;
#141 = DIRECTION ( 'NONE',  ( 0.0000000000000000000, -1.000000000000000000, -2.515992823025205500E-020 ) ) ;
#142 = MANIFOLD_SOLID_BREP ( '¸ðµû±â1', #72 ) ;
#143 = DIRECTION ( 'NONE',  ( 0.0000000000000000000, 1.000000000000000000, 2.515992823025503100E-020 ) ) ;
#144 = CARTESIAN_POINT ( 'NONE',  ( 3.126155884183455200E-016, 2.552700000000005500, -0.5105399999999992200 ) ) ;
#145 = CARTESIAN_POINT ( 'NONE',  ( 0.0000000000000000000, -3.931884926516697000E-036, 1.562756813347757100E-016 ) ) ;
#146 = CARTESIAN_POINT ( 'NONE',  ( 0.0000000000000000000, 2.316600391800457800E-018, -92.07499999999998900 ) ) ;
#147 = VERTEX_POINT ( 'NONE', #49 ) ;
#148 = UNCERTAINTY_MEASURE_WITH_UNIT (LENGTH_MEASURE( 1.000000000000000100E-005 ), #97, 'distance_accuracy_value', 'NONE');
#149 = CARTESIAN_POINT ( 'NONE',  ( 0.0000000000000000000, 2.552699999999999700, 1.563399070835690900E-016 ) ) ;
#150 = ORIENTED_EDGE ( 'NONE', *, *, #46, .F. ) ;
#151 = DIRECTION ( 'NONE',  ( 0.0000000000000000000, 0.0000000000000000000, 1.000000000000000000 ) ) ;
#152 = PRODUCT_DEFINITION ( 'UNKNOWN', '', #66, #181 ) ;
#153 = ORIENTED_EDGE ( 'NONE', *, *, #27, .F. ) ;
#154 = LINE ( 'NONE', #19, #61 ) ;
#155 = ORIENTED_EDGE ( 'NONE', *, *, #10, .F. ) ;
#156 = FACE_OUTER_BOUND ( 'NONE', #8, .T. ) ;
#157 = DIRECTION ( 'NONE',  ( 0.0000000000000000000, 1.000000000000000000, 2.515992823025503100E-020 ) ) ;
#158 = CARTESIAN_POINT ( 'NONE',  ( 0.0000000000000000000, -3.931884926516698400E-036, 1.562756813347757100E-016 ) ) ;
#159 = VERTEX_POINT ( 'NONE', #195 ) ;
#160 = ORIENTED_EDGE ( 'NONE', *, *, #190, .T. ) ;
#161 = DIRECTION ( 'NONE',  ( 0.0000000000000000000, -1.000000000000000000, 0.0000000000000000000 ) ) ;
#162 = DIRECTION ( 'NONE',  ( -0.0000000000000000000, -2.515992823025205800E-020, 1.000000000000000000 ) ) ;
#163 = CARTESIAN_POINT ( 'NONE',  ( 0.0000000000000000000, 0.0000000000000000000, 0.0000000000000000000 ) ) ;
#164 = LINE ( 'NONE', #194, #138 ) ;
#165 = DIRECTION ( 'NONE',  ( 0.0000000000000000000, 2.515992823025206100E-020, -1.000000000000000000 ) ) ;
#166 = AXIS2_PLACEMENT_3D ( 'NONE', #24, #165, #134 ) ;
#167 = VECTOR ( 'NONE', #17, 1000.000000000000000 ) ;
#168 = EDGE_LOOP ( 'NONE', ( #200, #160, #137, #15 ) ) ;
#169 = ADVANCED_BREP_SHAPE_REPRESENTATION ( '03-0290', ( #142, #29 ), #105 ) ;
#170 = MECHANICAL_DESIGN_GEOMETRIC_PRESENTATION_REPRESENTATION (  '', ( #182 ), #43 ) ;
#171 = EDGE_CURVE ( 'NONE', #174, #118, #73, .T. ) ;
#172 = CONICAL_SURFACE ( 'NONE', #203, 2414.213562373073700, 1.178097245096169300 ) ;
#173 = VECTOR ( 'NONE', #85, 1000.000000000000000 ) ;
#174 = VERTEX_POINT ( 'NONE', #132 ) ;
#175 = CARTESIAN_POINT ( 'NONE',  ( 0.0000000000000000000, -2.281672466224782100E-017, 906.8676370393301300 ) ) ;
#176 = EDGE_LOOP ( 'NONE', ( #87, #189, #108, #58 ) ) ;
#177 = VECTOR ( 'NONE', #99, 1000.000000000000100 ) ;
#178 = CARTESIAN_POINT ( 'NONE',  ( 0.0000000000000000000, -2.281672466224782100E-017, 906.8676370393301300 ) ) ;
#179 = ORIENTED_EDGE ( 'NONE', *, *, #208, .F. ) ;
#180 = UNCERTAINTY_MEASURE_WITH_UNIT (LENGTH_MEASURE( 1.000000000000000100E-005 ), #36, 'distance_accuracy_value', 'NONE');
#181 = PRODUCT_DEFINITION_CONTEXT ( 'detailed design', #122, 'design' ) ;
#182 = STYLED_ITEM ( 'NONE', ( #31 ), #169 ) ;
#183 = APPLICATION_PROTOCOL_DEFINITION ( 'draft international standard', 'automotive_design', 1998, #88 ) ;
#184 = ORIENTED_EDGE ( 'NONE', *, *, #205, .F. ) ;
#185 = AXIS2_PLACEMENT_3D ( 'NONE', #65, #214, #63 ) ;
#186 = DIRECTION ( 'NONE',  ( 1.000000000000000000, 0.0000000000000000000, 0.0000000000000000000 ) ) ;
#187 = ORIENTED_EDGE ( 'NONE', *, *, #30, .F. ) ;
#188 = ADVANCED_FACE ( 'NONE', ( #199 ), #42, .T. ) ;
#189 = ORIENTED_EDGE ( 'NONE', *, *, #196, .T. ) ;
#190 = EDGE_CURVE ( 'NONE', #135, #14, #40, .T. ) ;
#191 = SURFACE_STYLE_FILL_AREA ( #34 ) ;
#192 = UNCERTAINTY_MEASURE_WITH_UNIT (LENGTH_MEASURE( 1.000000000000000100E-005 ), #28, 'distance_accuracy_value', 'NONE');
#193 = DIRECTION ( 'NONE',  ( -0.0000000000000000000, -2.515992823025205800E-020, 1.000000000000000000 ) ) ;
#194 = CARTESIAN_POINT ( 'NONE',  ( 0.0000000000000000000, 2.042160000000015100, 1.563270619338104200E-016 ) ) ;
#195 = CARTESIAN_POINT ( 'NONE',  ( 2.813540295765116000E-016, -2.042160000000015100, 1.562243007357410300E-016 ) ) ;
#196 = EDGE_CURVE ( 'NONE', #135, #174, #128, .T. ) ;
#197 =( NAMED_UNIT ( * ) SI_UNIT ( $, .STERADIAN. ) SOLID_ANGLE_UNIT ( ) );
#198 = CARTESIAN_POINT ( 'NONE',  ( 0.0000000000000000000, 1.284514975867286600E-020, -0.5105399999999992200 ) ) ;
#199 = FACE_OUTER_BOUND ( 'NONE', #168, .T. ) ;
#200 = ORIENTED_EDGE ( 'NONE', *, *, #11, .T. ) ;
#201 = CARTESIAN_POINT ( 'NONE',  ( 0.0000000000000000000, 2.042160000000015100, 1.563270619338104200E-016 ) ) ;
#202 = EDGE_LOOP ( 'NONE', ( #74, #93, #155, #179 ) ) ;
#203 = AXIS2_PLACEMENT_3D ( 'NONE', #175, #4, #81 ) ;
#204 = APPLICATION_PROTOCOL_DEFINITION ( 'draft international standard', 'automotive_design', 1998, #122 ) ;
#205 = EDGE_CURVE ( 'NONE', #95, #159, #209, .T. ) ;
#206 = ADVANCED_FACE ( 'NONE', ( #45 ), #79, .T. ) ;
#207 = SURFACE_STYLE_FILL_AREA ( #38 ) ;
#208 = EDGE_CURVE ( 'NONE', #95, #14, #164, .T. ) ;
#209 = CIRCLE ( 'NONE', #86, 2.042160000000015100 ) ;
#210 = AXIS2_PLACEMENT_3D ( 'NONE', #198, #3, #211 ) ;
#211 = DIRECTION ( 'NONE',  ( 0.0000000000000000000, 1.000000000000000000, 0.0000000000000000000 ) ) ;
#212 = CARTESIAN_POINT ( 'NONE',  ( 0.0000000000000000000, 0.0000000000000000000, 0.0000000000000000000 ) ) ;
#213 = PRODUCT_RELATED_PRODUCT_CATEGORY ( 'part', '', ( #121 ) ) ;
#214 = DIRECTION ( 'NONE',  ( 0.0000000000000000000, 2.515992823025206100E-020, -1.000000000000000000 ) ) ;
ENDSEC;
END-ISO-10303-21;
