ISO-10303-21;
HEADER;
FILE_DESCRIPTION (( 'STEP AP214' ),
    '1' );
FILE_NAME ('03-0292.STEP',
    '2020-07-23T06:24:00',
    ( '' ),
    ( '' ),
    'SwSTEP 2.0',
    'SolidWorks 2014',
    '' );
FILE_SCHEMA (( 'AUTOMOTIVE_DESIGN' ));
ENDSEC;

DATA;
#1 = SURFACE_SIDE_STYLE ('',( #97 ) ) ;
#2 =( NAMED_UNIT ( * ) SI_UNIT ( $, .STERADIAN. ) SOLID_ANGLE_UNIT ( ) );
#3 = VECTOR ( 'NONE', #17, 1000.000000000000000 ) ;
#4 = COLOUR_RGB ( '',0.7921568627450980000, 0.8196078431372548800, 0.9333333333333333500 ) ;
#5 = STYLED_ITEM ( 'NONE', ( #54 ), #75 ) ;
#6 = CARTESIAN_POINT ( 'NONE',  ( 0.0000000000000000000, -2.489200000000006100, -0.4978400000000310400 ) ) ;
#7 = CARTESIAN_POINT ( 'NONE',  ( 0.0000000000000000000, 7.644211161470472400E-019, -93.10606039945911000 ) ) ;
#8 = DIRECTION ( 'NONE',  ( 0.0000000000000000000, -0.9238795325112859600, 0.3826834323650916100 ) ) ;
#9 = CARTESIAN_POINT ( 'NONE',  ( 2.438712649950036300E-016, -1.991359999999969800, 1.523929726826456400E-016 ) ) ;
#10 = AXIS2_PLACEMENT_3D ( 'NONE', #52, #105, #83 ) ;
#11 = DIRECTION ( 'NONE',  ( -0.0000000000000000000, -8.210218678219232800E-021, 1.000000000000000000 ) ) ;
#12 = ORIENTED_EDGE ( 'NONE', *, *, #15, .T. ) ;
#13 = LINE ( 'NONE', #85, #150 ) ;
#14 = LINE ( 'NONE', #95, #60 ) ;
#15 = EDGE_CURVE ( 'NONE', #40, #159, #114, .T. ) ;
#16 = CLOSED_SHELL ( 'NONE', ( #63, #176, #212, #100, #49, #168, #138 ) ) ;
#17 = DIRECTION ( 'NONE',  ( -0.0000000000000000000, -8.210218678219232800E-021, 1.000000000000000000 ) ) ;
#18 = APPLICATION_CONTEXT ( 'automotive_design' ) ;
#19 = FACE_OUTER_BOUND ( 'NONE', #21, .T. ) ;
#20 = DIRECTION ( 'NONE',  ( 0.0000000000000000000, 8.210218678219234300E-021, -1.000000000000000000 ) ) ;
#21 = EDGE_LOOP ( 'NONE', ( #67, #198, #78 ) ) ;
#22 = CIRCLE ( 'NONE', #205, 2.489200000000011800 ) ;
#23 = SHAPE_DEFINITION_REPRESENTATION ( #153, #75 ) ;
#24 = PRESENTATION_LAYER_ASSIGNMENT (  '', '', ( #5 ) ) ;
#25 = EDGE_LOOP ( 'NONE', ( #55, #177, #202, #65 ) ) ;
#26 = UNCERTAINTY_MEASURE_WITH_UNIT (LENGTH_MEASURE( 1.000000000000000100E-005 ), #207, 'distance_accuracy_value', 'NONE');
#27 = DIRECTION ( 'NONE',  ( -0.0000000000000000000, -8.210218678219232800E-021, 1.000000000000000000 ) ) ;
#28 = ORIENTED_EDGE ( 'NONE', *, *, #42, .F. ) ;
#29 = CARTESIAN_POINT ( 'NONE',  ( 0.0000000000000000000, 0.0000000000000000000, 0.0000000000000000000 ) ) ;
#30 = EDGE_LOOP ( 'NONE', ( #192, #12, #111, #204 ) ) ;
#31 = CIRCLE ( 'NONE', #135, 2.489200000000011800 ) ;
#32 = CARTESIAN_POINT ( 'NONE',  ( 0.0000000000000000000, 7.644211161470472400E-019, -93.10606039945911000 ) ) ;
#33 = CARTESIAN_POINT ( 'NONE',  ( 2.743551731193817500E-016, -1.991359999999969800, 1.523929726826456400E-016 ) ) ;
#34 = EDGE_CURVE ( 'NONE', #40, #119, #179, .T. ) ;
#35 = CARTESIAN_POINT ( 'NONE',  ( 3.048390812437599200E-016, 2.489200000000006100, -0.4978400000000310400 ) ) ;
#36 = VERTEX_POINT ( 'NONE', #35 ) ;
#37 = EDGE_LOOP ( 'NONE', ( #126, #71 ) ) ;
#38 =( LENGTH_UNIT ( ) NAMED_UNIT ( * ) SI_UNIT ( .MILLI., .METRE. ) );
#39 =( NAMED_UNIT ( * ) PLANE_ANGLE_UNIT ( ) SI_UNIT ( $, .RADIAN. ) );
#40 = VERTEX_POINT ( 'NONE', #33 ) ;
#41 = CONICAL_SURFACE ( 'NONE', #10, 2414.213562373081000, 1.178097245096170400 ) ;
#42 = EDGE_CURVE ( 'NONE', #119, #40, #58, .T. ) ;
#43 = PRODUCT_RELATED_PRODUCT_CATEGORY ( 'part', '', ( #200 ) ) ;
#44 = DIRECTION ( 'NONE',  ( -0.0000000000000000000, -8.210218678219232800E-021, 1.000000000000000000 ) ) ;
#45 = DIRECTION ( 'NONE',  ( 1.131426112287699300E-016, 0.9238795325112859600, 0.3826834323650916100 ) ) ;
#46 = CARTESIAN_POINT ( 'NONE',  ( 0.0000000000000000000, -2.489200000000011400, -92.07499999999998900 ) ) ;
#47 = SURFACE_STYLE_FILL_AREA ( #188 ) ;
#48 = VERTEX_POINT ( 'NONE', #46 ) ;
#49 = ADVANCED_FACE ( 'NONE', ( #19 ), #64, .T. ) ;
#50 = EDGE_CURVE ( 'NONE', #36, #159, #183, .T. ) ;
#51 = CARTESIAN_POINT ( 'NONE',  ( 0.0000000000000000000, 4.087375266764918100E-021, -0.4978400000000310400 ) ) ;
#52 = CARTESIAN_POINT ( 'NONE',  ( 0.0000000000000000000, -7.445797562072185700E-018, 906.8939396005408800 ) ) ;
#53 = CONICAL_SURFACE ( 'NONE', #175, 1.991359999999969800, 0.7853981633974533900 ) ;
#54 = PRESENTATION_STYLE_ASSIGNMENT (( #129 ) ) ;
#55 = ORIENTED_EDGE ( 'NONE', *, *, #120, .T. ) ;
#56 = DIRECTION ( 'NONE',  ( 0.0000000000000000000, -1.000000000000000000, -8.210218678219232800E-021 ) ) ;
#57 = CARTESIAN_POINT ( 'NONE',  ( 0.0000000000000000000, 1.991359999999969800, 1.524256716847797600E-016 ) ) ;
#58 = CIRCLE ( 'NONE', #74, 1.991359999999969800 ) ;
#59 = EDGE_CURVE ( 'NONE', #159, #36, #69, .T. ) ;
#60 = VECTOR ( 'NONE', #27, 1000.000000000000000 ) ;
#61 = EDGE_CURVE ( 'NONE', #119, #36, #13, .T. ) ;
#62 = ORIENTED_EDGE ( 'NONE', *, *, #59, .T. ) ;
#63 = ADVANCED_FACE ( 'NONE', ( #107 ), #53, .T. ) ;
#64 = CONICAL_SURFACE ( 'NONE', #113, 2414.213562373081000, 1.178097245096170400 ) ;
#65 = ORIENTED_EDGE ( 'NONE', *, *, #211, .F. ) ;
#66 = LINE ( 'NONE', #157, #3 ) ;
#67 = ORIENTED_EDGE ( 'NONE', *, *, #101, .F. ) ;
#68 = FILL_AREA_STYLE_COLOUR ( '', #4 ) ;
#69 = CIRCLE ( 'NONE', #122, 2.489200000000006100 ) ;
#70 = DIRECTION ( 'NONE',  ( 0.0000000000000000000, 1.000000000000000000, 8.210218678221732000E-021 ) ) ;
#71 = ORIENTED_EDGE ( 'NONE', *, *, #34, .T. ) ;
#72 = CYLINDRICAL_SURFACE ( 'NONE', #152, 2.489200000000006100 ) ;
#73 = CARTESIAN_POINT ( 'NONE',  ( 0.0000000000000000000, -1.251313863727450900E-036, 1.524093221837127000E-016 ) ) ;
#74 = AXIS2_PLACEMENT_3D ( 'NONE', #80, #190, #148 ) ;
#75 = ADVANCED_BREP_SHAPE_REPRESENTATION ( '03-0292', ( #160, #131 ), #76 ) ;
#76 =( GEOMETRIC_REPRESENTATION_CONTEXT ( 3 ) GLOBAL_UNCERTAINTY_ASSIGNED_CONTEXT ( ( #123 ) ) GLOBAL_UNIT_ASSIGNED_CONTEXT ( ( #38, #214, #169 ) ) REPRESENTATION_CONTEXT ( 'NONE', 'WORKASPACE' ) );
#77 = SURFACE_STYLE_USAGE ( .BOTH. , #112 ) ;
#78 = ORIENTED_EDGE ( 'NONE', *, *, #90, .F. ) ;
#79 = DIRECTION ( 'NONE',  ( 0.0000000000000000000, 8.210218678219232800E-021, -1.000000000000000000 ) ) ;
#80 = CARTESIAN_POINT ( 'NONE',  ( 0.0000000000000000000, -1.251313863727450700E-036, 1.524093221837127000E-016 ) ) ;
#81 = AXIS2_PLACEMENT_3D ( 'NONE', #51, #128, #170 ) ;
#82 = VECTOR ( 'NONE', #8, 1000.000000000000100 ) ;
#83 = DIRECTION ( 'NONE',  ( 0.0000000000000000000, -1.000000000000000000, 0.0000000000000000000 ) ) ;
#84 =( GEOMETRIC_REPRESENTATION_CONTEXT ( 3 ) GLOBAL_UNCERTAINTY_ASSIGNED_CONTEXT ( ( #143 ) ) GLOBAL_UNIT_ASSIGNED_CONTEXT ( ( #108, #39, #2 ) ) REPRESENTATION_CONTEXT ( 'NONE', 'WORKASPACE' ) );
#85 = CARTESIAN_POINT ( 'NONE',  ( 0.0000000000000000000, 1.991359999999969800, 1.524256716847797600E-016 ) ) ;
#86 = FILL_AREA_STYLE ('',( #68 ) ) ;
#87 = DIRECTION ( 'NONE',  ( 0.0000000000000000000, 1.000000000000000000, 0.0000000000000000000 ) ) ;
#88 = COLOUR_RGB ( '',0.7921568627450980000, 0.8196078431372548800, 0.9333333333333333500 ) ;
#89 = STYLED_ITEM ( 'NONE', ( #151 ), #160 ) ;
#90 = EDGE_CURVE ( 'NONE', #181, #48, #31, .T. ) ;
#91 = DIRECTION ( 'NONE',  ( -0.0000000000000000000, -8.210218678219232800E-021, 1.000000000000000000 ) ) ;
#92 =( NAMED_UNIT ( * ) PLANE_ANGLE_UNIT ( ) SI_UNIT ( $, .RADIAN. ) );
#93 = DIRECTION ( 'NONE',  ( 0.0000000000000000000, -1.000000000000000000, 0.0000000000000000000 ) ) ;
#94 = CARTESIAN_POINT ( 'NONE',  ( 0.0000000000000000000, 2.489200000000000300, 1.524297590600465300E-016 ) ) ;
#95 = CARTESIAN_POINT ( 'NONE',  ( 3.048390812437599200E-016, 2.489200000000006100, 2.043687633382336600E-020 ) ) ;
#96 = VECTOR ( 'NONE', #45, 1000.000000000000100 ) ;
#97 = SURFACE_STYLE_FILL_AREA ( #86 ) ;
#98 = FACE_OUTER_BOUND ( 'NONE', #102, .T. ) ;
#99 = FACE_OUTER_BOUND ( 'NONE', #25, .T. ) ;
#100 = ADVANCED_FACE ( 'NONE', ( #110 ), #106, .F. ) ;
#101 = EDGE_CURVE ( 'NONE', #130, #181, #193, .T. ) ;
#102 = EDGE_LOOP ( 'NONE', ( #166, #162, #132 ) ) ;
#103 = PRESENTATION_LAYER_ASSIGNMENT (  '', '', ( #89 ) ) ;
#104 = APPLICATION_PROTOCOL_DEFINITION ( 'draft international standard', 'automotive_design', 1998, #18 ) ;
#105 = DIRECTION ( 'NONE',  ( -0.0000000000000000000, -8.210218678219232800E-021, 1.000000000000000000 ) ) ;
#106 = PLANE ( 'NONE',  #164 ) ;
#107 = FACE_OUTER_BOUND ( 'NONE', #30, .T. ) ;
#108 =( LENGTH_UNIT ( ) NAMED_UNIT ( * ) SI_UNIT ( .MILLI., .METRE. ) );
#109 = PRODUCT_DEFINITION ( 'UNKNOWN', '', #171, #210 ) ;
#110 = FACE_OUTER_BOUND ( 'NONE', #37, .T. ) ;
#111 = ORIENTED_EDGE ( 'NONE', *, *, #50, .F. ) ;
#112 = SURFACE_SIDE_STYLE ('',( #47 ) ) ;
#113 = AXIS2_PLACEMENT_3D ( 'NONE', #172, #91, #136 ) ;
#114 = LINE ( 'NONE', #9, #145 ) ;
#115 = ORIENTED_EDGE ( 'NONE', *, *, #211, .T. ) ;
#116 = DIRECTION ( 'NONE',  ( -0.0000000000000000000, -8.210218678219232800E-021, 1.000000000000000000 ) ) ;
#117 = DIRECTION ( 'NONE',  ( 0.0000000000000000000, 1.000000000000000000, 8.210218678221732000E-021 ) ) ;
#118 = CARTESIAN_POINT ( 'NONE',  ( 0.0000000000000000000, -1.251313863727450700E-036, 1.524093221837127000E-016 ) ) ;
#119 = VERTEX_POINT ( 'NONE', #57 ) ;
#120 = EDGE_CURVE ( 'NONE', #48, #181, #22, .T. ) ;
#121 = ORIENTED_EDGE ( 'NONE', *, *, #90, .T. ) ;
#122 = AXIS2_PLACEMENT_3D ( 'NONE', #180, #178, #87 ) ;
#123 = UNCERTAINTY_MEASURE_WITH_UNIT (LENGTH_MEASURE( 1.000000000000000100E-005 ), #38, 'distance_accuracy_value', 'NONE');
#124 = CARTESIAN_POINT ( 'NONE',  ( 0.0000000000000000000, 0.0000000000000000000, 0.0000000000000000000 ) ) ;
#125 = AXIS2_PLACEMENT_3D ( 'NONE', #161, #116, #56 ) ;
#126 = ORIENTED_EDGE ( 'NONE', *, *, #42, .T. ) ;
#127 = DIRECTION ( 'NONE',  ( 0.0000000000000000000, 0.0000000000000000000, 1.000000000000000000 ) ) ;
#128 = DIRECTION ( 'NONE',  ( 0.0000000000000000000, 8.210218678219234300E-021, -1.000000000000000000 ) ) ;
#129 = SURFACE_STYLE_USAGE ( .BOTH. , #1 ) ;
#130 = VERTEX_POINT ( 'NONE', #203 ) ;
#131 = AXIS2_PLACEMENT_3D ( 'NONE', #124, #127, #155 ) ;
#132 = ORIENTED_EDGE ( 'NONE', *, *, #120, .F. ) ;
#133 = CARTESIAN_POINT ( 'NONE',  ( 3.048390812437605100E-016, 2.489200000000011400, -92.07499999999998900 ) ) ;
#134 =( NAMED_UNIT ( * ) SI_UNIT ( $, .STERADIAN. ) SOLID_ANGLE_UNIT ( ) );
#135 = AXIS2_PLACEMENT_3D ( 'NONE', #165, #146, #186 ) ;
#136 = DIRECTION ( 'NONE',  ( 0.0000000000000000000, -1.000000000000000000, 0.0000000000000000000 ) ) ;
#137 = LINE ( 'NONE', #7, #82 ) ;
#138 = ADVANCED_FACE ( 'NONE', ( #139 ), #187, .T. ) ;
#139 = FACE_OUTER_BOUND ( 'NONE', #185, .T. ) ;
#140 =( GEOMETRIC_REPRESENTATION_CONTEXT ( 3 ) GLOBAL_UNCERTAINTY_ASSIGNED_CONTEXT ( ( #26 ) ) GLOBAL_UNIT_ASSIGNED_CONTEXT ( ( #207, #92, #134 ) ) REPRESENTATION_CONTEXT ( 'NONE', 'WORKASPACE' ) );
#141 = PRODUCT_CONTEXT ( 'NONE', #196, 'mechanical' ) ;
#142 = EDGE_CURVE ( 'NONE', #181, #36, #14, .T. ) ;
#143 = UNCERTAINTY_MEASURE_WITH_UNIT (LENGTH_MEASURE( 1.000000000000000100E-005 ), #108, 'distance_accuracy_value', 'NONE');
#144 = DIRECTION ( 'NONE',  ( 0.0000000000000000000, -1.000000000000000000, -8.210218678219232800E-021 ) ) ;
#145 = VECTOR ( 'NONE', #208, 1000.000000000000000 ) ;
#146 = DIRECTION ( 'NONE',  ( -0.0000000000000000000, -8.210218678219232800E-021, 1.000000000000000000 ) ) ;
#147 = CYLINDRICAL_SURFACE ( 'NONE', #125, 2.489200000000006100 ) ;
#148 = DIRECTION ( 'NONE',  ( 0.0000000000000000000, 1.000000000000000000, 8.210218678221732000E-021 ) ) ;
#149 = EDGE_LOOP ( 'NONE', ( #154, #121, #115, #62 ) ) ;
#150 = VECTOR ( 'NONE', #156, 1000.000000000000000 ) ;
#151 = PRESENTATION_STYLE_ASSIGNMENT (( #77 ) ) ;
#152 = AXIS2_PLACEMENT_3D ( 'NONE', #29, #44, #144 ) ;
#153 = PRODUCT_DEFINITION_SHAPE ( 'NONE', 'NONE',  #109 ) ;
#154 = ORIENTED_EDGE ( 'NONE', *, *, #142, .F. ) ;
#155 = DIRECTION ( 'NONE',  ( 1.000000000000000000, 0.0000000000000000000, 0.0000000000000000000 ) ) ;
#156 = DIRECTION ( 'NONE',  ( 0.0000000000000000000, 0.7071067811865512400, -0.7071067811865439100 ) ) ;
#157 = CARTESIAN_POINT ( 'NONE',  ( 0.0000000000000000000, -2.489200000000006100, -2.043687633382336600E-020 ) ) ;
#158 = ORIENTED_EDGE ( 'NONE', *, *, #15, .F. ) ;
#159 = VERTEX_POINT ( 'NONE', #6 ) ;
#160 = MANIFOLD_SOLID_BREP ( '¸ðµû±â1', #16 ) ;
#161 = CARTESIAN_POINT ( 'NONE',  ( 0.0000000000000000000, 0.0000000000000000000, 0.0000000000000000000 ) ) ;
#162 = ORIENTED_EDGE ( 'NONE', *, *, #101, .T. ) ;
#163 = CARTESIAN_POINT ( 'NONE',  ( 0.0000000000000000000, -1.251313863727450900E-036, 1.524093221837127000E-016 ) ) ;
#164 = AXIS2_PLACEMENT_3D ( 'NONE', #94, #79, #184 ) ;
#165 = CARTESIAN_POINT ( 'NONE',  ( 0.0000000000000000000, 7.559558847970357900E-019, -92.07499999999998900 ) ) ;
#166 = ORIENTED_EDGE ( 'NONE', *, *, #194, .F. ) ;
#167 = MECHANICAL_DESIGN_GEOMETRIC_PRESENTATION_REPRESENTATION (  '', ( #5 ), #84 ) ;
#168 = ADVANCED_FACE ( 'NONE', ( #209 ), #147, .T. ) ;
#169 =( NAMED_UNIT ( * ) SI_UNIT ( $, .STERADIAN. ) SOLID_ANGLE_UNIT ( ) );
#170 = DIRECTION ( 'NONE',  ( 0.0000000000000000000, 1.000000000000000000, 0.0000000000000000000 ) ) ;
#171 = PRODUCT_DEFINITION_FORMATION_WITH_SPECIFIED_SOURCE ( 'ANY', '', #200, .NOT_KNOWN. ) ;
#172 = CARTESIAN_POINT ( 'NONE',  ( 0.0000000000000000000, -7.445797562072185700E-018, 906.8939396005408800 ) ) ;
#173 = CARTESIAN_POINT ( 'NONE',  ( 0.0000000000000000000, 7.559558847970357900E-019, -92.07499999999998900 ) ) ;
#174 = DIRECTION ( 'NONE',  ( -0.0000000000000000000, -8.210218678219232800E-021, 1.000000000000000000 ) ) ;
#175 = AXIS2_PLACEMENT_3D ( 'NONE', #73, #20, #70 ) ;
#176 = ADVANCED_FACE ( 'NONE', ( #99 ), #72, .T. ) ;
#177 = ORIENTED_EDGE ( 'NONE', *, *, #142, .T. ) ;
#178 = DIRECTION ( 'NONE',  ( 0.0000000000000000000, 8.210218678219234300E-021, -1.000000000000000000 ) ) ;
#179 = CIRCLE ( 'NONE', #189, 1.991359999999969800 ) ;
#180 = CARTESIAN_POINT ( 'NONE',  ( 0.0000000000000000000, 4.087375266764918100E-021, -0.4978400000000310400 ) ) ;
#181 = VERTEX_POINT ( 'NONE', #133 ) ;
#182 = FILL_AREA_STYLE_COLOUR ( '', #88 ) ;
#183 = CIRCLE ( 'NONE', #81, 2.489200000000006100 ) ;
#184 = DIRECTION ( 'NONE',  ( 0.0000000000000000000, 1.000000000000000000, 8.210218678219232800E-021 ) ) ;
#185 = EDGE_LOOP ( 'NONE', ( #158, #28, #191, #195 ) ) ;
#186 = DIRECTION ( 'NONE',  ( 0.0000000000000000000, -1.000000000000000000, 0.0000000000000000000 ) ) ;
#187 = CONICAL_SURFACE ( 'NONE', #199, 1.991359999999969800, 0.7853981633974533900 ) ;
#188 = FILL_AREA_STYLE ('',( #182 ) ) ;
#189 = AXIS2_PLACEMENT_3D ( 'NONE', #118, #11, #117 ) ;
#190 = DIRECTION ( 'NONE',  ( -0.0000000000000000000, -8.210218678219232800E-021, 1.000000000000000000 ) ) ;
#191 = ORIENTED_EDGE ( 'NONE', *, *, #61, .T. ) ;
#192 = ORIENTED_EDGE ( 'NONE', *, *, #34, .F. ) ;
#193 = LINE ( 'NONE', #32, #96 ) ;
#194 = EDGE_CURVE ( 'NONE', #130, #48, #137, .T. ) ;
#195 = ORIENTED_EDGE ( 'NONE', *, *, #59, .F. ) ;
#196 = APPLICATION_CONTEXT ( 'automotive_design' ) ;
#197 = APPLICATION_PROTOCOL_DEFINITION ( 'draft international standard', 'automotive_design', 1998, #196 ) ;
#198 = ORIENTED_EDGE ( 'NONE', *, *, #194, .T. ) ;
#199 = AXIS2_PLACEMENT_3D ( 'NONE', #163, #201, #206 ) ;
#200 = PRODUCT ( '03-0292', '03-0292', '', ( #141 ) ) ;
#201 = DIRECTION ( 'NONE',  ( 0.0000000000000000000, 8.210218678219234300E-021, -1.000000000000000000 ) ) ;
#202 = ORIENTED_EDGE ( 'NONE', *, *, #50, .T. ) ;
#203 = CARTESIAN_POINT ( 'NONE',  ( 0.0000000000000000000, 7.644211161470472400E-019, -93.10606039945911000 ) ) ;
#204 = ORIENTED_EDGE ( 'NONE', *, *, #61, .F. ) ;
#205 = AXIS2_PLACEMENT_3D ( 'NONE', #173, #174, #93 ) ;
#206 = DIRECTION ( 'NONE',  ( 0.0000000000000000000, 1.000000000000000000, 8.210218678221732000E-021 ) ) ;
#207 =( LENGTH_UNIT ( ) NAMED_UNIT ( * ) SI_UNIT ( .MILLI., .METRE. ) );
#208 = DIRECTION ( 'NONE',  ( 8.659560562354978500E-017, -0.7071067811865512400, -0.7071067811865439100 ) ) ;
#209 = FACE_OUTER_BOUND ( 'NONE', #149, .T. ) ;
#210 = PRODUCT_DEFINITION_CONTEXT ( 'detailed design', #18, 'design' ) ;
#211 = EDGE_CURVE ( 'NONE', #48, #159, #66, .T. ) ;
#212 = ADVANCED_FACE ( 'NONE', ( #98 ), #41, .T. ) ;
#213 = MECHANICAL_DESIGN_GEOMETRIC_PRESENTATION_REPRESENTATION (  '', ( #89 ), #140 ) ;
#214 =( NAMED_UNIT ( * ) PLANE_ANGLE_UNIT ( ) SI_UNIT ( $, .RADIAN. ) );
ENDSEC;
END-ISO-10303-21;
