ISO-10303-21;
HEADER;
FILE_DESCRIPTION (( 'STEP AP214' ),
    '1' );
FILE_NAME ('03-0305.STEP',
    '2020-07-23T06:32:52',
    ( '' ),
    ( '' ),
    'SwSTEP 2.0',
    'SolidWorks 2014',
    '' );
FILE_SCHEMA (( 'AUTOMOTIVE_DESIGN' ));
ENDSEC;

DATA;
#1 = VECTOR ( 'NONE', #178, 1000.000000000000100 ) ;
#2 = CIRCLE ( 'NONE', #67, 1.993900000000004700 ) ;
#3 = ADVANCED_FACE ( 'NONE', ( #52 ), #78, .F. ) ;
#4 = AXIS2_PLACEMENT_3D ( 'NONE', #207, #113, #114 ) ;
#5 = LINE ( 'NONE', #72, #164 ) ;
#6 = SURFACE_SIDE_STYLE ('',( #96 ) ) ;
#7 = CARTESIAN_POINT ( 'NONE',  ( 0.0000000000000000000, 0.0000000000000000000, 0.0000000000000000000 ) ) ;
#8 = CARTESIAN_POINT ( 'NONE',  ( 0.0000000000000000000, 5.046955268439738300E-037, 1.220952836536211800E-016 ) ) ;
#9 = SURFACE_STYLE_USAGE ( .BOTH. , #6 ) ;
#10 = EDGE_CURVE ( 'NONE', #196, #54, #180, .T. ) ;
#11 = ORIENTED_EDGE ( 'NONE', *, *, #107, .F. ) ;
#12 = CARTESIAN_POINT ( 'NONE',  ( 0.0000000000000000000, 3.802100107888607900E-018, 919.7990995779841800 ) ) ;
#13 = DIRECTION ( 'NONE',  ( 0.0000000000000000000, 1.000000000000000000, -4.133620167312965700E-021 ) ) ;
#14 = CARTESIAN_POINT ( 'NONE',  ( 2.441823252819919700E-016, 1.993900000000009800, -79.37500000000000000 ) ) ;
#15 = PRESENTATION_LAYER_ASSIGNMENT (  '', '', ( #176 ) ) ;
#16 =( NAMED_UNIT ( * ) SI_UNIT ( $, .STERADIAN. ) SOLID_ANGLE_UNIT ( ) );
#17 = VERTEX_POINT ( 'NONE', #209 ) ;
#18 = APPLICATION_CONTEXT ( 'automotive_design' ) ;
#19 = CONICAL_SURFACE ( 'NONE', #87, 2414.213562373053700, 1.178097245096166400 ) ;
#20 = ORIENTED_EDGE ( 'NONE', *, *, #132, .F. ) ;
#21 = EDGE_CURVE ( 'NONE', #17, #54, #2, .T. ) ;
#22 = CIRCLE ( 'NONE', #154, 1.595119999999998500 ) ;
#23 = MANIFOLD_SOLID_BREP ( '¸ðµû±â1', #143 ) ;
#24 = PRESENTATION_STYLE_ASSIGNMENT (( #125 ) ) ;
#25 = FACE_OUTER_BOUND ( 'NONE', #50, .T. ) ;
#26 = ORIENTED_EDGE ( 'NONE', *, *, #34, .T. ) ;
#27 = CARTESIAN_POINT ( 'NONE',  ( 0.0000000000000000000, 0.0000000000000000000, 0.0000000000000000000 ) ) ;
#28 = CARTESIAN_POINT ( 'NONE',  ( 0.0000000000000000000, 0.0000000000000000000, 0.0000000000000000000 ) ) ;
#29 = DIRECTION ( 'NONE',  ( -0.0000000000000000000, 4.133620167309427500E-021, 1.000000000000000000 ) ) ;
#30 = DIRECTION ( 'NONE',  ( -0.0000000000000000000, 4.133620167309427500E-021, 1.000000000000000000 ) ) ;
#31 = AXIS2_PLACEMENT_3D ( 'NONE', #37, #213, #55 ) ;
#32 = PRODUCT_CONTEXT ( 'NONE', #44, 'mechanical' ) ;
#33 = ORIENTED_EDGE ( 'NONE', *, *, #109, .T. ) ;
#34 = EDGE_CURVE ( 'NONE', #149, #106, #5, .T. ) ;
#35 = FACE_OUTER_BOUND ( 'NONE', #193, .T. ) ;
#36 = CARTESIAN_POINT ( 'NONE',  ( 0.0000000000000000000, -1.993900000000009800, -79.37500000000000000 ) ) ;
#37 = CARTESIAN_POINT ( 'NONE',  ( 0.0000000000000000000, 1.993899999999999800, 1.220870416283695800E-016 ) ) ;
#38 = ORIENTED_EDGE ( 'NONE', *, *, #109, .F. ) ;
#39 = AXIS2_PLACEMENT_3D ( 'NONE', #27, #99, #136 ) ;
#40 = PRESENTATION_LAYER_ASSIGNMENT (  '', '', ( #63 ) ) ;
#41 = CONICAL_SURFACE ( 'NONE', #165, 1.595119999999998500, 0.7853981633974407300 ) ;
#42 = ORIENTED_EDGE ( 'NONE', *, *, #57, .F. ) ;
#43 = DIRECTION ( 'NONE',  ( 0.0000000000000000000, -4.133620167309428300E-021, -1.000000000000000000 ) ) ;
#44 = APPLICATION_CONTEXT ( 'automotive_design' ) ;
#45 = ORIENTED_EDGE ( 'NONE', *, *, #137, .T. ) ;
#46 = CARTESIAN_POINT ( 'NONE',  ( 0.0000000000000000000, -1.993900000000004700, 8.242025251598287000E-021 ) ) ;
#47 = DIRECTION ( 'NONE',  ( -0.0000000000000000000, 4.133620167309427500E-021, 1.000000000000000000 ) ) ;
#48 = CIRCLE ( 'NONE', #88, 1.993900000000004700 ) ;
#49 =( NAMED_UNIT ( * ) SI_UNIT ( $, .STERADIAN. ) SOLID_ANGLE_UNIT ( ) );
#50 = EDGE_LOOP ( 'NONE', ( #117, #157, #38, #73 ) ) ;
#51 =( NAMED_UNIT ( * ) PLANE_ANGLE_UNIT ( ) SI_UNIT ( $, .RADIAN. ) );
#52 = FACE_OUTER_BOUND ( 'NONE', #60, .T. ) ;
#53 = EDGE_CURVE ( 'NONE', #112, #196, #212, .T. ) ;
#54 = VERTEX_POINT ( 'NONE', #206 ) ;
#55 = DIRECTION ( 'NONE',  ( 0.0000000000000000000, 1.000000000000000000, -4.133620167309427500E-021 ) ) ;
#56 = ORIENTED_EDGE ( 'NONE', *, *, #21, .F. ) ;
#57 = EDGE_CURVE ( 'NONE', #106, #58, #201, .T. ) ;
#58 = VERTEX_POINT ( 'NONE', #36 ) ;
#59 = CONICAL_SURFACE ( 'NONE', #167, 2414.213562373053700, 1.178097245096166400 ) ;
#60 = EDGE_LOOP ( 'NONE', ( #147, #190 ) ) ;
#61 = DIRECTION ( 'NONE',  ( 0.0000000000000000000, -4.133620167309428300E-021, -1.000000000000000000 ) ) ;
#62 = FILL_AREA_STYLE ('',( #168 ) ) ;
#63 = STYLED_ITEM ( 'NONE', ( #89 ), #23 ) ;
#64 = DIRECTION ( 'NONE',  ( 0.0000000000000000000, 1.000000000000000000, 0.0000000000000000000 ) ) ;
#65 = CARTESIAN_POINT ( 'NONE',  ( 0.0000000000000000000, -3.281061007801857900E-019, -79.37500000000000000 ) ) ;
#66 = DIRECTION ( 'NONE',  ( 0.0000000000000000000, -4.133620167309428300E-021, -1.000000000000000000 ) ) ;
#67 = AXIS2_PLACEMENT_3D ( 'NONE', #127, #110, #92 ) ;
#68 = SURFACE_STYLE_FILL_AREA ( #62 ) ;
#69 = EDGE_LOOP ( 'NONE', ( #142, #11, #155, #56 ) ) ;
#70 =( GEOMETRIC_REPRESENTATION_CONTEXT ( 3 ) GLOBAL_UNCERTAINTY_ASSIGNED_CONTEXT ( ( #182 ) ) GLOBAL_UNIT_ASSIGNED_CONTEXT ( ( #129, #130, #163 ) ) REPRESENTATION_CONTEXT ( 'NONE', 'WORKASPACE' ) );
#71 = CYLINDRICAL_SURFACE ( 'NONE', #39, 1.993900000000004700 ) ;
#72 = CARTESIAN_POINT ( 'NONE',  ( 0.0000000000000000000, -3.315200594208194100E-019, -80.20090042201573500 ) ) ;
#73 = ORIENTED_EDGE ( 'NONE', *, *, #10, .F. ) ;
#74 = ADVANCED_FACE ( 'NONE', ( #205 ), #144, .T. ) ;
#75 = AXIS2_PLACEMENT_3D ( 'NONE', #65, #138, #169 ) ;
#76 = VECTOR ( 'NONE', #198, 1000.000000000000000 ) ;
#77 = ADVANCED_BREP_SHAPE_REPRESENTATION ( '03-0305', ( #23, #158 ), #104 ) ;
#78 = PLANE ( 'NONE',  #31 ) ;
#79 =( LENGTH_UNIT ( ) NAMED_UNIT ( * ) SI_UNIT ( .MILLI., .METRE. ) );
#80 = CARTESIAN_POINT ( 'NONE',  ( 2.441823252819913300E-016, 1.993900000000004700, -8.242025251598287000E-021 ) ) ;
#81 = LINE ( 'NONE', #153, #121 ) ;
#82 = APPLICATION_PROTOCOL_DEFINITION ( 'draft international standard', 'automotive_design', 1998, #44 ) ;
#83 = EDGE_CURVE ( 'NONE', #58, #106, #94, .T. ) ;
#84 = VECTOR ( 'NONE', #199, 1000.000000000000200 ) ;
#85 = ORIENTED_EDGE ( 'NONE', *, *, #34, .F. ) ;
#86 = COLOUR_RGB ( '',0.7921568627450980000, 0.8196078431372548800, 0.9333333333333333500 ) ;
#87 = AXIS2_PLACEMENT_3D ( 'NONE', #12, #135, #203 ) ;
#88 = AXIS2_PLACEMENT_3D ( 'NONE', #98, #66, #64 ) ;
#89 = PRESENTATION_STYLE_ASSIGNMENT (( #9 ) ) ;
#90 = DIRECTION ( 'NONE',  ( 1.131426112287697500E-016, 0.9238795325112844100, 0.3826834323650953300 ) ) ;
#91 = DIRECTION ( 'NONE',  ( 0.0000000000000000000, -1.000000000000000000, 4.133620167309427500E-021 ) ) ;
#92 = DIRECTION ( 'NONE',  ( 0.0000000000000000000, 1.000000000000000000, 0.0000000000000000000 ) ) ;
#93 = ORIENTED_EDGE ( 'NONE', *, *, #146, .F. ) ;
#94 = CIRCLE ( 'NONE', #75, 1.993900000000009300 ) ;
#95 = PRODUCT_DEFINITION_SHAPE ( 'NONE', 'NONE',  #181 ) ;
#96 = SURFACE_STYLE_FILL_AREA ( #148 ) ;
#97 = CARTESIAN_POINT ( 'NONE',  ( 0.0000000000000000000, 1.595119999999998500, 1.220886900334199100E-016 ) ) ;
#98 = CARTESIAN_POINT ( 'NONE',  ( 0.0000000000000000000, -1.648405050319703400E-021, -0.3987800000000120700 ) ) ;
#99 = DIRECTION ( 'NONE',  ( -0.0000000000000000000, 4.133620167309427500E-021, 1.000000000000000000 ) ) ;
#100 = MECHANICAL_DESIGN_GEOMETRIC_PRESENTATION_REPRESENTATION (  '', ( #176 ), #188 ) ;
#101 = UNCERTAINTY_MEASURE_WITH_UNIT (LENGTH_MEASURE( 1.000000000000000100E-005 ), #79, 'distance_accuracy_value', 'NONE');
#102 = LINE ( 'NONE', #46, #173 ) ;
#103 = ORIENTED_EDGE ( 'NONE', *, *, #146, .T. ) ;
#104 =( GEOMETRIC_REPRESENTATION_CONTEXT ( 3 ) GLOBAL_UNCERTAINTY_ASSIGNED_CONTEXT ( ( #101 ) ) GLOBAL_UNIT_ASSIGNED_CONTEXT ( ( #79, #186, #16 ) ) REPRESENTATION_CONTEXT ( 'NONE', 'WORKASPACE' ) );
#105 =( LENGTH_UNIT ( ) NAMED_UNIT ( * ) SI_UNIT ( .MILLI., .METRE. ) );
#106 = VERTEX_POINT ( 'NONE', #14 ) ;
#107 = EDGE_CURVE ( 'NONE', #196, #112, #22, .T. ) ;
#108 = ORIENTED_EDGE ( 'NONE', *, *, #83, .T. ) ;
#109 = EDGE_CURVE ( 'NONE', #54, #17, #48, .T. ) ;
#110 = DIRECTION ( 'NONE',  ( 0.0000000000000000000, -4.133620167309428300E-021, -1.000000000000000000 ) ) ;
#111 = LINE ( 'NONE', #80, #76 ) ;
#112 = VERTEX_POINT ( 'NONE', #119 ) ;
#113 = DIRECTION ( 'NONE',  ( -0.0000000000000000000, 4.133620167309427500E-021, 1.000000000000000000 ) ) ;
#114 = DIRECTION ( 'NONE',  ( 0.0000000000000000000, -1.000000000000000000, 0.0000000000000000000 ) ) ;
#115 = AXIS2_PLACEMENT_3D ( 'NONE', #187, #61, #200 ) ;
#116 = FACE_OUTER_BOUND ( 'NONE', #184, .T. ) ;
#117 = ORIENTED_EDGE ( 'NONE', *, *, #53, .F. ) ;
#118 = CARTESIAN_POINT ( 'NONE',  ( 0.0000000000000000000, 5.046955268439736600E-037, 1.220952836536211800E-016 ) ) ;
#119 = CARTESIAN_POINT ( 'NONE',  ( 2.197640927537918600E-016, -1.595119999999998500, 1.221018772738224700E-016 ) ) ;
#120 = AXIS2_PLACEMENT_3D ( 'NONE', #8, #128, #162 ) ;
#121 = VECTOR ( 'NONE', #171, 1000.000000000000100 ) ;
#122 = DIRECTION ( 'NONE',  ( 0.0000000000000000000, 0.0000000000000000000, 1.000000000000000000 ) ) ;
#123 = DIRECTION ( 'NONE',  ( 1.000000000000000000, 0.0000000000000000000, 0.0000000000000000000 ) ) ;
#124 = ORIENTED_EDGE ( 'NONE', *, *, #21, .T. ) ;
#125 = SURFACE_STYLE_USAGE ( .BOTH. , #185 ) ;
#126 = FACE_OUTER_BOUND ( 'NONE', #69, .T. ) ;
#127 = CARTESIAN_POINT ( 'NONE',  ( 0.0000000000000000000, -1.648405050319703400E-021, -0.3987800000000120700 ) ) ;
#128 = DIRECTION ( 'NONE',  ( -0.0000000000000000000, 4.133620167309427500E-021, 1.000000000000000000 ) ) ;
#129 =( LENGTH_UNIT ( ) NAMED_UNIT ( * ) SI_UNIT ( .MILLI., .METRE. ) );
#130 =( NAMED_UNIT ( * ) PLANE_ANGLE_UNIT ( ) SI_UNIT ( $, .RADIAN. ) );
#131 = CONICAL_SURFACE ( 'NONE', #115, 1.595119999999998500, 0.7853981633974407300 ) ;
#132 = EDGE_CURVE ( 'NONE', #106, #54, #111, .T. ) ;
#133 = EDGE_LOOP ( 'NONE', ( #108, #197, #33, #93 ) ) ;
#134 = CARTESIAN_POINT ( 'NONE',  ( 0.0000000000000000000, -3.315200594208194100E-019, -80.20090042201573500 ) ) ;
#135 = DIRECTION ( 'NONE',  ( -0.0000000000000000000, 4.133620167309427500E-021, 1.000000000000000000 ) ) ;
#136 = DIRECTION ( 'NONE',  ( 0.0000000000000000000, -1.000000000000000000, 4.133620167309427500E-021 ) ) ;
#137 = EDGE_CURVE ( 'NONE', #149, #58, #140, .T. ) ;
#138 = DIRECTION ( 'NONE',  ( -0.0000000000000000000, 4.133620167309427500E-021, 1.000000000000000000 ) ) ;
#139 = CARTESIAN_POINT ( 'NONE',  ( 0.0000000000000000000, 5.046955268439738300E-037, 1.220952836536211800E-016 ) ) ;
#140 = LINE ( 'NONE', #134, #84 ) ;
#141 = PRODUCT ( '03-0305', '03-0305', '', ( #32 ) ) ;
#142 = ORIENTED_EDGE ( 'NONE', *, *, #192, .F. ) ;
#143 = CLOSED_SHELL ( 'NONE', ( #208, #145, #175, #3, #177, #74, #191 ) ) ;
#144 = CYLINDRICAL_SURFACE ( 'NONE', #195, 1.993900000000004700 ) ;
#145 = ADVANCED_FACE ( 'NONE', ( #170 ), #71, .T. ) ;
#146 = EDGE_CURVE ( 'NONE', #58, #17, #102, .T. ) ;
#147 = ORIENTED_EDGE ( 'NONE', *, *, #107, .T. ) ;
#148 = FILL_AREA_STYLE ('',( #194 ) ) ;
#149 = VERTEX_POINT ( 'NONE', #189 ) ;
#150 = EDGE_LOOP ( 'NONE', ( #20, #152, #103, #124 ) ) ;
#151 = CARTESIAN_POINT ( 'NONE',  ( 0.0000000000000000000, 3.802100107888607900E-018, 919.7990995779841800 ) ) ;
#152 = ORIENTED_EDGE ( 'NONE', *, *, #57, .T. ) ;
#153 = CARTESIAN_POINT ( 'NONE',  ( 1.953458602255924200E-016, -1.595119999999998500, 1.221018772738224700E-016 ) ) ;
#154 = AXIS2_PLACEMENT_3D ( 'NONE', #139, #30, #13 ) ;
#155 = ORIENTED_EDGE ( 'NONE', *, *, #10, .T. ) ;
#156 = MECHANICAL_DESIGN_GEOMETRIC_PRESENTATION_REPRESENTATION (  '', ( #63 ), #70 ) ;
#157 = ORIENTED_EDGE ( 'NONE', *, *, #192, .T. ) ;
#158 = AXIS2_PLACEMENT_3D ( 'NONE', #28, #122, #123 ) ;
#159 = SHAPE_DEFINITION_REPRESENTATION ( #95, #77 ) ;
#160 = COLOUR_RGB ( '',0.7921568627450980000, 0.8196078431372548800, 0.9333333333333333500 ) ;
#161 = ORIENTED_EDGE ( 'NONE', *, *, #137, .F. ) ;
#162 = DIRECTION ( 'NONE',  ( 0.0000000000000000000, 1.000000000000000000, -4.133620167312965700E-021 ) ) ;
#163 =( NAMED_UNIT ( * ) SI_UNIT ( $, .STERADIAN. ) SOLID_ANGLE_UNIT ( ) );
#164 = VECTOR ( 'NONE', #90, 1000.000000000000200 ) ;
#165 = AXIS2_PLACEMENT_3D ( 'NONE', #118, #43, #183 ) ;
#166 = UNCERTAINTY_MEASURE_WITH_UNIT (LENGTH_MEASURE( 1.000000000000000100E-005 ), #105, 'distance_accuracy_value', 'NONE');
#167 = AXIS2_PLACEMENT_3D ( 'NONE', #151, #29, #172 ) ;
#168 = FILL_AREA_STYLE_COLOUR ( '', #160 ) ;
#169 = DIRECTION ( 'NONE',  ( 0.0000000000000000000, -1.000000000000000000, 0.0000000000000000000 ) ) ;
#170 = FACE_OUTER_BOUND ( 'NONE', #133, .T. ) ;
#171 = DIRECTION ( 'NONE',  ( 8.659560562354867500E-017, -0.7071067811865421300, -0.7071067811865529000 ) ) ;
#172 = DIRECTION ( 'NONE',  ( 0.0000000000000000000, -1.000000000000000000, 0.0000000000000000000 ) ) ;
#173 = VECTOR ( 'NONE', #47, 1000.000000000000000 ) ;
#174 = APPLICATION_PROTOCOL_DEFINITION ( 'draft international standard', 'automotive_design', 1998, #18 ) ;
#175 = ADVANCED_FACE ( 'NONE', ( #35 ), #59, .T. ) ;
#176 = STYLED_ITEM ( 'NONE', ( #24 ), #77 ) ;
#177 = ADVANCED_FACE ( 'NONE', ( #116 ), #19, .T. ) ;
#178 = DIRECTION ( 'NONE',  ( 0.0000000000000000000, 0.7071067811865421300, -0.7071067811865529000 ) ) ;
#179 = DIRECTION ( 'NONE',  ( -0.0000000000000000000, 4.133620167309427500E-021, 1.000000000000000000 ) ) ;
#180 = LINE ( 'NONE', #97, #1 ) ;
#181 = PRODUCT_DEFINITION ( 'UNKNOWN', '', #202, #210 ) ;
#182 = UNCERTAINTY_MEASURE_WITH_UNIT (LENGTH_MEASURE( 1.000000000000000100E-005 ), #129, 'distance_accuracy_value', 'NONE');
#183 = DIRECTION ( 'NONE',  ( 0.0000000000000000000, 1.000000000000000000, -4.133620167312965700E-021 ) ) ;
#184 = EDGE_LOOP ( 'NONE', ( #85, #45, #42 ) ) ;
#185 = SURFACE_SIDE_STYLE ('',( #68 ) ) ;
#186 =( NAMED_UNIT ( * ) PLANE_ANGLE_UNIT ( ) SI_UNIT ( $, .RADIAN. ) );
#187 = CARTESIAN_POINT ( 'NONE',  ( 0.0000000000000000000, 5.046955268439736600E-037, 1.220952836536211800E-016 ) ) ;
#188 =( GEOMETRIC_REPRESENTATION_CONTEXT ( 3 ) GLOBAL_UNCERTAINTY_ASSIGNED_CONTEXT ( ( #166 ) ) GLOBAL_UNIT_ASSIGNED_CONTEXT ( ( #105, #51, #49 ) ) REPRESENTATION_CONTEXT ( 'NONE', 'WORKASPACE' ) );
#189 = CARTESIAN_POINT ( 'NONE',  ( 0.0000000000000000000, -3.315200594208194100E-019, -80.20090042201573500 ) ) ;
#190 = ORIENTED_EDGE ( 'NONE', *, *, #53, .T. ) ;
#191 = ADVANCED_FACE ( 'NONE', ( #126 ), #131, .T. ) ;
#192 = EDGE_CURVE ( 'NONE', #112, #17, #81, .T. ) ;
#193 = EDGE_LOOP ( 'NONE', ( #161, #26, #204 ) ) ;
#194 = FILL_AREA_STYLE_COLOUR ( '', #86 ) ;
#195 = AXIS2_PLACEMENT_3D ( 'NONE', #7, #179, #91 ) ;
#196 = VERTEX_POINT ( 'NONE', #214 ) ;
#197 = ORIENTED_EDGE ( 'NONE', *, *, #132, .T. ) ;
#198 = DIRECTION ( 'NONE',  ( -0.0000000000000000000, 4.133620167309427500E-021, 1.000000000000000000 ) ) ;
#199 = DIRECTION ( 'NONE',  ( 0.0000000000000000000, -0.9238795325112844100, 0.3826834323650953300 ) ) ;
#200 = DIRECTION ( 'NONE',  ( 0.0000000000000000000, 1.000000000000000000, -4.133620167312965700E-021 ) ) ;
#201 = CIRCLE ( 'NONE', #4, 1.993900000000009300 ) ;
#202 = PRODUCT_DEFINITION_FORMATION_WITH_SPECIFIED_SOURCE ( 'ANY', '', #141, .NOT_KNOWN. ) ;
#203 = DIRECTION ( 'NONE',  ( 0.0000000000000000000, -1.000000000000000000, 0.0000000000000000000 ) ) ;
#204 = ORIENTED_EDGE ( 'NONE', *, *, #83, .F. ) ;
#205 = FACE_OUTER_BOUND ( 'NONE', #150, .T. ) ;
#206 = CARTESIAN_POINT ( 'NONE',  ( 2.441823252819913300E-016, 1.993900000000004700, -0.3987800000000120700 ) ) ;
#207 = CARTESIAN_POINT ( 'NONE',  ( 0.0000000000000000000, -3.281061007801857900E-019, -79.37500000000000000 ) ) ;
#208 = ADVANCED_FACE ( 'NONE', ( #25 ), #41, .T. ) ;
#209 = CARTESIAN_POINT ( 'NONE',  ( 0.0000000000000000000, -1.993900000000004700, -0.3987800000000120700 ) ) ;
#210 = PRODUCT_DEFINITION_CONTEXT ( 'detailed design', #18, 'design' ) ;
#211 = PRODUCT_RELATED_PRODUCT_CATEGORY ( 'part', '', ( #141 ) ) ;
#212 = CIRCLE ( 'NONE', #120, 1.595119999999998500 ) ;
#213 = DIRECTION ( 'NONE',  ( 0.0000000000000000000, -4.133620167309427500E-021, -1.000000000000000000 ) ) ;
#214 = CARTESIAN_POINT ( 'NONE',  ( 0.0000000000000000000, 1.595119999999998500, 1.220886900334199100E-016 ) ) ;
ENDSEC;
END-ISO-10303-21;
