ISO-10303-21;
HEADER;
FILE_DESCRIPTION (( 'STEP AP214' ),
    '1' );
FILE_NAME ('03-0315.STEP',
    '2020-07-23T06:39:41',
    ( '' ),
    ( '' ),
    'SwSTEP 2.0',
    'SolidWorks 2014',
    '' );
FILE_SCHEMA (( 'AUTOMOTIVE_DESIGN' ));
ENDSEC;

DATA;
#1 = MECHANICAL_DESIGN_GEOMETRIC_PRESENTATION_REPRESENTATION (  '', ( #36 ), #100 ) ;
#2 = APPLICATION_PROTOCOL_DEFINITION ( 'draft international standard', 'automotive_design', 1998, #159 ) ;
#3 = SURFACE_SIDE_STYLE ('',( #38 ) ) ;
#4 = FACE_OUTER_BOUND ( 'NONE', #153, .T. ) ;
#5 = STYLED_ITEM ( 'NONE', ( #206 ), #88 ) ;
#6 = VERTEX_POINT ( 'NONE', #167 ) ;
#7 = AXIS2_PLACEMENT_3D ( 'NONE', #131, #151, #136 ) ;
#8 = FACE_OUTER_BOUND ( 'NONE', #146, .T. ) ;
#9 = CARTESIAN_POINT ( 'NONE',  ( 0.0000000000000000000, 1.483841981350071500E-017, 929.5397805799119600 ) ) ;
#10 = CONICAL_SURFACE ( 'NONE', #143, 1.178559999999995200, 0.7853981633974391800 ) ;
#11 = CLOSED_SHELL ( 'NONE', ( #117, #181, #203, #174, #170, #186, #16 ) ) ;
#12 = PRODUCT_DEFINITION_FORMATION_WITH_SPECIFIED_SOURCE ( 'ANY', '', #104, .NOT_KNOWN. ) ;
#13 = CARTESIAN_POINT ( 'NONE',  ( 0.0000000000000000000, 1.473199999999999800, 9.019572473969081300E-017 ) ) ;
#14 = ORIENTED_EDGE ( 'NONE', *, *, #86, .F. ) ;
#15 = PRESENTATION_LAYER_ASSIGNMENT (  '', '', ( #36 ) ) ;
#16 = ADVANCED_FACE ( 'NONE', ( #207 ), #10, .T. ) ;
#17 = CARTESIAN_POINT ( 'NONE',  ( 1.804149664503891100E-016, 1.473200000000008500, -69.84999999999999400 ) ) ;
#18 = EDGE_CURVE ( 'NONE', #51, #160, #201, .T. ) ;
#19 =( NAMED_UNIT ( * ) SI_UNIT ( $, .STERADIAN. ) SOLID_ANGLE_UNIT ( ) );
#20 =( NAMED_UNIT ( * ) PLANE_ANGLE_UNIT ( ) SI_UNIT ( $, .RADIAN. ) );
#21 = DIRECTION ( 'NONE',  ( -0.0000000000000000000, 1.596318965955762500E-020, 1.000000000000000000 ) ) ;
#22 = CONICAL_SURFACE ( 'NONE', #95, 2414.213562373056900, 1.178097245096166900 ) ;
#23 = DIRECTION ( 'NONE',  ( -0.0000000000000000000, 1.596318965955762500E-020, 1.000000000000000000 ) ) ;
#24 = ORIENTED_EDGE ( 'NONE', *, *, #86, .T. ) ;
#25 = ORIENTED_EDGE ( 'NONE', *, *, #37, .F. ) ;
#26 = ORIENTED_EDGE ( 'NONE', *, *, #56, .F. ) ;
#27 = AXIS2_PLACEMENT_3D ( 'NONE', #30, #46, #80 ) ;
#28 = DIRECTION ( 'NONE',  ( 0.0000000000000000000, -1.596318965955762200E-020, -1.000000000000000000 ) ) ;
#29 = EDGE_LOOP ( 'NONE', ( #211, #24, #115, #154 ) ) ;
#30 = CARTESIAN_POINT ( 'NONE',  ( 0.0000000000000000000, -4.703394201292283400E-021, -0.2946400000000140600 ) ) ;
#31 = PRESENTATION_LAYER_ASSIGNMENT (  '', '', ( #5 ) ) ;
#32 = ORIENTED_EDGE ( 'NONE', *, *, #18, .F. ) ;
#33 = DIRECTION ( 'NONE',  ( 0.0000000000000000000, 0.0000000000000000000, 1.000000000000000000 ) ) ;
#34 = VECTOR ( 'NONE', #122, 1000.000000000000000 ) ;
#35 = PRODUCT_DEFINITION ( 'UNKNOWN', '', #12, #41 ) ;
#36 = STYLED_ITEM ( 'NONE', ( #171 ), #67 ) ;
#37 = EDGE_CURVE ( 'NONE', #160, #90, #137, .T. ) ;
#38 = SURFACE_STYLE_FILL_AREA ( #156 ) ;
#39 = FACE_OUTER_BOUND ( 'NONE', #195, .T. ) ;
#40 = CARTESIAN_POINT ( 'NONE',  ( 0.0000000000000000000, 1.440186866369332600E-036, 9.021924171069727400E-017 ) ) ;
#41 = PRODUCT_DEFINITION_CONTEXT ( 'detailed design', #187, 'design' ) ;
#42 = AXIS2_PLACEMENT_3D ( 'NONE', #157, #91, #145 ) ;
#43 = ORIENTED_EDGE ( 'NONE', *, *, #183, .T. ) ;
#44 = CARTESIAN_POINT ( 'NONE',  ( 0.0000000000000000000, -1.115028797720100000E-018, -69.84999999999999400 ) ) ;
#45 = CARTESIAN_POINT ( 'NONE',  ( 1.804149664503885700E-016, 1.473200000000003800, -0.2946400000000140600 ) ) ;
#46 = DIRECTION ( 'NONE',  ( 0.0000000000000000000, -1.596318965955762200E-020, -1.000000000000000000 ) ) ;
#47 =( LENGTH_UNIT ( ) NAMED_UNIT ( * ) SI_UNIT ( .MILLI., .METRE. ) );
#48 = CYLINDRICAL_SURFACE ( 'NONE', #42, 1.473200000000003800 ) ;
#49 =( NAMED_UNIT ( * ) PLANE_ANGLE_UNIT ( ) SI_UNIT ( $, .RADIAN. ) );
#50 = CYLINDRICAL_SURFACE ( 'NONE', #66, 1.473200000000003800 ) ;
#51 = VERTEX_POINT ( 'NONE', #84 ) ;
#52 = CARTESIAN_POINT ( 'NONE',  ( 1.443319731603098700E-016, -1.178559999999995200, 9.023805528750243300E-017 ) ) ;
#53 = PRODUCT_RELATED_PRODUCT_CATEGORY ( 'part', '', ( #104 ) ) ;
#54 = COLOUR_RGB ( '',0.7921568627450980000, 0.8196078431372548800, 0.9333333333333333500 ) ;
#55 = ORIENTED_EDGE ( 'NONE', *, *, #180, .F. ) ;
#56 = EDGE_CURVE ( 'NONE', #160, #6, #73, .T. ) ;
#57 = AXIS2_PLACEMENT_3D ( 'NONE', #40, #108, #213 ) ;
#58 = ORIENTED_EDGE ( 'NONE', *, *, #59, .T. ) ;
#59 = EDGE_CURVE ( 'NONE', #90, #102, #79, .T. ) ;
#60 = CIRCLE ( 'NONE', #27, 1.473200000000003800 ) ;
#61 = ORIENTED_EDGE ( 'NONE', *, *, #127, .T. ) ;
#62 = CARTESIAN_POINT ( 'NONE',  ( 0.0000000000000000000, 1.440186866369332600E-036, 9.021924171069727400E-017 ) ) ;
#63 = FILL_AREA_STYLE_COLOUR ( '', #54 ) ;
#64 = CONICAL_SURFACE ( 'NONE', #205, 1.178559999999995200, 0.7853981633974391800 ) ;
#65 = EDGE_LOOP ( 'NONE', ( #81, #142, #123, #68 ) ) ;
#66 = AXIS2_PLACEMENT_3D ( 'NONE', #101, #87, #105 ) ;
#67 = ADVANCED_BREP_SHAPE_REPRESENTATION ( '03-0315', ( #88, #169 ), #179 ) ;
#68 = ORIENTED_EDGE ( 'NONE', *, *, #140, .F. ) ;
#69 = AXIS2_PLACEMENT_3D ( 'NONE', #13, #72, #107 ) ;
#70 = PRODUCT_DEFINITION_SHAPE ( 'NONE', 'NONE',  #35 ) ;
#71 = ORIENTED_EDGE ( 'NONE', *, *, #163, .F. ) ;
#72 = DIRECTION ( 'NONE',  ( 0.0000000000000000000, -1.596318965955762500E-020, -1.000000000000000000 ) ) ;
#73 = LINE ( 'NONE', #96, #200 ) ;
#74 = VERTEX_POINT ( 'NONE', #78 ) ;
#75 = DIRECTION ( 'NONE',  ( 0.0000000000000000000, 0.7071067811865410200, -0.7071067811865540100 ) ) ;
#76 = DIRECTION ( 'NONE',  ( 0.0000000000000000000, 1.000000000000000000, -1.596318965955299700E-020 ) ) ;
#77 = SURFACE_SIDE_STYLE ('',( #89 ) ) ;
#78 = CARTESIAN_POINT ( 'NONE',  ( 1.623734698053492400E-016, -1.178559999999995200, 9.023805528750243300E-017 ) ) ;
#79 = LINE ( 'NONE', #82, #172 ) ;
#80 = DIRECTION ( 'NONE',  ( 0.0000000000000000000, 1.000000000000000000, 0.0000000000000000000 ) ) ;
#81 = ORIENTED_EDGE ( 'NONE', *, *, #127, .F. ) ;
#82 = CARTESIAN_POINT ( 'NONE',  ( 1.804149664503885700E-016, 1.473200000000003800, -2.351697100646035700E-020 ) ) ;
#83 = CARTESIAN_POINT ( 'NONE',  ( 0.0000000000000000000, 1.483841981350071500E-017, 929.5397805799119600 ) ) ;
#84 = CARTESIAN_POINT ( 'NONE',  ( 0.0000000000000000000, -1.124769846056910900E-018, -70.46021942008805200 ) ) ;
#85 = UNCERTAINTY_MEASURE_WITH_UNIT (LENGTH_MEASURE( 1.000000000000000100E-005 ), #209, 'distance_accuracy_value', 'NONE');
#86 = EDGE_CURVE ( 'NONE', #90, #160, #189, .T. ) ;
#87 = DIRECTION ( 'NONE',  ( -0.0000000000000000000, 1.596318965955762500E-020, 1.000000000000000000 ) ) ;
#88 = MANIFOLD_SOLID_BREP ( '¸ðµû±â1', #11 ) ;
#89 = SURFACE_STYLE_FILL_AREA ( #129 ) ;
#90 = VERTEX_POINT ( 'NONE', #17 ) ;
#91 = DIRECTION ( 'NONE',  ( -0.0000000000000000000, 1.596318965955762500E-020, 1.000000000000000000 ) ) ;
#92 = LINE ( 'NONE', #109, #106 ) ;
#93 = ORIENTED_EDGE ( 'NONE', *, *, #144, .T. ) ;
#94 = CARTESIAN_POINT ( 'NONE',  ( 0.0000000000000000000, 1.440186866369332800E-036, 9.021924171069727400E-017 ) ) ;
#95 = AXIS2_PLACEMENT_3D ( 'NONE', #9, #126, #165 ) ;
#96 = CARTESIAN_POINT ( 'NONE',  ( 0.0000000000000000000, -1.473200000000003800, 2.351697100646035700E-020 ) ) ;
#97 = AXIS2_PLACEMENT_3D ( 'NONE', #83, #21, #208 ) ;
#98 = CIRCLE ( 'NONE', #116, 1.178559999999995200 ) ;
#99 = UNCERTAINTY_MEASURE_WITH_UNIT (LENGTH_MEASURE( 1.000000000000000100E-005 ), #47, 'distance_accuracy_value', 'NONE');
#100 =( GEOMETRIC_REPRESENTATION_CONTEXT ( 3 ) GLOBAL_UNCERTAINTY_ASSIGNED_CONTEXT ( ( #99 ) ) GLOBAL_UNIT_ASSIGNED_CONTEXT ( ( #47, #49, #19 ) ) REPRESENTATION_CONTEXT ( 'NONE', 'WORKASPACE' ) );
#101 = CARTESIAN_POINT ( 'NONE',  ( 0.0000000000000000000, 0.0000000000000000000, 0.0000000000000000000 ) ) ;
#102 = VERTEX_POINT ( 'NONE', #45 ) ;
#103 = PRODUCT_CONTEXT ( 'NONE', #159, 'mechanical' ) ;
#104 = PRODUCT ( '03-0315', '03-0315', '', ( #103 ) ) ;
#105 = DIRECTION ( 'NONE',  ( 0.0000000000000000000, -1.000000000000000000, 1.596318965955762500E-020 ) ) ;
#106 = VECTOR ( 'NONE', #124, 1000.000000000000000 ) ;
#107 = DIRECTION ( 'NONE',  ( 0.0000000000000000000, 1.000000000000000000, -1.596318965955762500E-020 ) ) ;
#108 = DIRECTION ( 'NONE',  ( -0.0000000000000000000, 1.596318965955762500E-020, 1.000000000000000000 ) ) ;
#109 = CARTESIAN_POINT ( 'NONE',  ( 2.303304630640496500E-050, -1.124769846056910900E-018, -70.46021942008805200 ) ) ;
#110 = FACE_OUTER_BOUND ( 'NONE', #112, .T. ) ;
#111 = DIRECTION ( 'NONE',  ( -0.0000000000000000000, 1.596318965955762500E-020, 1.000000000000000000 ) ) ;
#112 = EDGE_LOOP ( 'NONE', ( #176, #125, #14 ) ) ;
#113 = DIRECTION ( 'NONE',  ( -0.0000000000000000000, 1.596318965955762500E-020, 1.000000000000000000 ) ) ;
#114 = COLOUR_RGB ( '',0.7921568627450980000, 0.8196078431372548800, 0.9333333333333333500 ) ;
#115 = ORIENTED_EDGE ( 'NONE', *, *, #56, .T. ) ;
#116 = AXIS2_PLACEMENT_3D ( 'NONE', #62, #23, #138 ) ;
#117 = ADVANCED_FACE ( 'NONE', ( #4 ), #64, .T. ) ;
#118 = LINE ( 'NONE', #52, #34 ) ;
#119 = ORIENTED_EDGE ( 'NONE', *, *, #37, .T. ) ;
#120 = UNCERTAINTY_MEASURE_WITH_UNIT (LENGTH_MEASURE( 1.000000000000000100E-005 ), #196, 'distance_accuracy_value', 'NONE');
#121 = SURFACE_STYLE_USAGE ( .BOTH. , #3 ) ;
#122 = DIRECTION ( 'NONE',  ( 8.659560562354854000E-017, -0.7071067811865410200, -0.7071067811865540100 ) ) ;
#123 = ORIENTED_EDGE ( 'NONE', *, *, #180, .T. ) ;
#124 = DIRECTION ( 'NONE',  ( 1.131426112287697800E-016, 0.9238795325112846300, 0.3826834323650950000 ) ) ;
#125 = ORIENTED_EDGE ( 'NONE', *, *, #18, .T. ) ;
#126 = DIRECTION ( 'NONE',  ( -0.0000000000000000000, 1.596318965955762500E-020, 1.000000000000000000 ) ) ;
#127 = EDGE_CURVE ( 'NONE', #74, #6, #118, .T. ) ;
#128 = CARTESIAN_POINT ( 'NONE',  ( 0.0000000000000000000, -1.473200000000008500, -69.84999999999999400 ) ) ;
#129 = FILL_AREA_STYLE ('',( #214 ) ) ;
#130 = DIRECTION ( 'NONE',  ( 0.0000000000000000000, -0.9238795325112846300, 0.3826834323650950000 ) ) ;
#131 = CARTESIAN_POINT ( 'NONE',  ( 0.0000000000000000000, -4.703394201292283400E-021, -0.2946400000000140600 ) ) ;
#132 = CARTESIAN_POINT ( 'NONE',  ( 0.0000000000000000000, -1.115028797720100000E-018, -69.84999999999999400 ) ) ;
#133 = CONICAL_SURFACE ( 'NONE', #97, 2414.213562373056900, 1.178097245096166900 ) ;
#134 = ORIENTED_EDGE ( 'NONE', *, *, #163, .T. ) ;
#135 = DIRECTION ( 'NONE',  ( 0.0000000000000000000, 1.000000000000000000, -1.596318965955299700E-020 ) ) ;
#136 = DIRECTION ( 'NONE',  ( 0.0000000000000000000, 1.000000000000000000, 0.0000000000000000000 ) ) ;
#137 = CIRCLE ( 'NONE', #147, 1.473200000000008300 ) ;
#138 = DIRECTION ( 'NONE',  ( 0.0000000000000000000, 1.000000000000000000, -1.596318965955299700E-020 ) ) ;
#139 =( NAMED_UNIT ( * ) SI_UNIT ( $, .STERADIAN. ) SOLID_ANGLE_UNIT ( ) );
#140 = EDGE_CURVE ( 'NONE', #6, #102, #210, .T. ) ;
#141 = CIRCLE ( 'NONE', #57, 1.178559999999995200 ) ;
#142 = ORIENTED_EDGE ( 'NONE', *, *, #198, .F. ) ;
#143 = AXIS2_PLACEMENT_3D ( 'NONE', #94, #168, #135 ) ;
#144 = EDGE_CURVE ( 'NONE', #102, #6, #60, .T. ) ;
#145 = DIRECTION ( 'NONE',  ( 0.0000000000000000000, -1.000000000000000000, 1.596318965955762500E-020 ) ) ;
#146 = EDGE_LOOP ( 'NONE', ( #32, #43, #25 ) ) ;
#147 = AXIS2_PLACEMENT_3D ( 'NONE', #44, #113, #173 ) ;
#148 = ORIENTED_EDGE ( 'NONE', *, *, #144, .F. ) ;
#149 =( NAMED_UNIT ( * ) SI_UNIT ( $, .STERADIAN. ) SOLID_ANGLE_UNIT ( ) );
#150 = DIRECTION ( 'NONE',  ( -0.0000000000000000000, 1.596318965955762500E-020, 1.000000000000000000 ) ) ;
#151 = DIRECTION ( 'NONE',  ( 0.0000000000000000000, -1.596318965955762200E-020, -1.000000000000000000 ) ) ;
#152 = DIRECTION ( 'NONE',  ( 0.0000000000000000000, -1.000000000000000000, 0.0000000000000000000 ) ) ;
#153 = EDGE_LOOP ( 'NONE', ( #71, #61, #148, #55 ) ) ;
#154 = ORIENTED_EDGE ( 'NONE', *, *, #140, .T. ) ;
#155 = CARTESIAN_POINT ( 'NONE',  ( 0.0000000000000000000, 0.0000000000000000000, 0.0000000000000000000 ) ) ;
#156 = FILL_AREA_STYLE ('',( #63 ) ) ;
#157 = CARTESIAN_POINT ( 'NONE',  ( 0.0000000000000000000, 0.0000000000000000000, 0.0000000000000000000 ) ) ;
#158 = VECTOR ( 'NONE', #130, 1000.000000000000000 ) ;
#159 = APPLICATION_CONTEXT ( 'automotive_design' ) ;
#160 = VERTEX_POINT ( 'NONE', #128 ) ;
#161 = SHAPE_DEFINITION_REPRESENTATION ( #70, #67 ) ;
#162 = VECTOR ( 'NONE', #75, 1000.000000000000000 ) ;
#163 = EDGE_CURVE ( 'NONE', #74, #184, #141, .T. ) ;
#164 = EDGE_LOOP ( 'NONE', ( #191, #134 ) ) ;
#165 = DIRECTION ( 'NONE',  ( 0.0000000000000000000, -1.000000000000000000, 0.0000000000000000000 ) ) ;
#166 = LINE ( 'NONE', #185, #162 ) ;
#167 = CARTESIAN_POINT ( 'NONE',  ( 0.0000000000000000000, -1.473200000000003800, -0.2946400000000140600 ) ) ;
#168 = DIRECTION ( 'NONE',  ( 0.0000000000000000000, -1.596318965955762200E-020, -1.000000000000000000 ) ) ;
#169 = AXIS2_PLACEMENT_3D ( 'NONE', #155, #33, #188 ) ;
#170 = ADVANCED_FACE ( 'NONE', ( #110 ), #22, .T. ) ;
#171 = PRESENTATION_STYLE_ASSIGNMENT (( #121 ) ) ;
#172 = VECTOR ( 'NONE', #182, 1000.000000000000000 ) ;
#173 = DIRECTION ( 'NONE',  ( 0.0000000000000000000, -1.000000000000000000, 0.0000000000000000000 ) ) ;
#174 = ADVANCED_FACE ( 'NONE', ( #178 ), #194, .F. ) ;
#175 =( NAMED_UNIT ( * ) PLANE_ANGLE_UNIT ( ) SI_UNIT ( $, .RADIAN. ) );
#176 = ORIENTED_EDGE ( 'NONE', *, *, #183, .F. ) ;
#177 = APPLICATION_PROTOCOL_DEFINITION ( 'draft international standard', 'automotive_design', 1998, #187 ) ;
#178 = FACE_OUTER_BOUND ( 'NONE', #164, .T. ) ;
#179 =( GEOMETRIC_REPRESENTATION_CONTEXT ( 3 ) GLOBAL_UNCERTAINTY_ASSIGNED_CONTEXT ( ( #85 ) ) GLOBAL_UNIT_ASSIGNED_CONTEXT ( ( #209, #20, #139 ) ) REPRESENTATION_CONTEXT ( 'NONE', 'WORKASPACE' ) );
#180 = EDGE_CURVE ( 'NONE', #184, #102, #166, .T. ) ;
#181 = ADVANCED_FACE ( 'NONE', ( #39 ), #48, .T. ) ;
#182 = DIRECTION ( 'NONE',  ( -0.0000000000000000000, 1.596318965955762500E-020, 1.000000000000000000 ) ) ;
#183 = EDGE_CURVE ( 'NONE', #51, #90, #92, .T. ) ;
#184 = VERTEX_POINT ( 'NONE', #204 ) ;
#185 = CARTESIAN_POINT ( 'NONE',  ( 0.0000000000000000000, 1.178559999999995200, 9.020042813389211500E-017 ) ) ;
#186 = ADVANCED_FACE ( 'NONE', ( #212 ), #50, .T. ) ;
#187 = APPLICATION_CONTEXT ( 'automotive_design' ) ;
#188 = DIRECTION ( 'NONE',  ( 1.000000000000000000, 0.0000000000000000000, 0.0000000000000000000 ) ) ;
#189 = CIRCLE ( 'NONE', #192, 1.473200000000008300 ) ;
#190 =( GEOMETRIC_REPRESENTATION_CONTEXT ( 3 ) GLOBAL_UNCERTAINTY_ASSIGNED_CONTEXT ( ( #120 ) ) GLOBAL_UNIT_ASSIGNED_CONTEXT ( ( #196, #175, #149 ) ) REPRESENTATION_CONTEXT ( 'NONE', 'WORKASPACE' ) );
#191 = ORIENTED_EDGE ( 'NONE', *, *, #198, .T. ) ;
#192 = AXIS2_PLACEMENT_3D ( 'NONE', #132, #111, #152 ) ;
#193 = CARTESIAN_POINT ( 'NONE',  ( 0.0000000000000000000, 1.440186866369332800E-036, 9.021924171069727400E-017 ) ) ;
#194 = PLANE ( 'NONE',  #69 ) ;
#195 = EDGE_LOOP ( 'NONE', ( #119, #58, #93, #26 ) ) ;
#196 =( LENGTH_UNIT ( ) NAMED_UNIT ( * ) SI_UNIT ( .MILLI., .METRE. ) );
#197 = CARTESIAN_POINT ( 'NONE',  ( 0.0000000000000000000, -1.124769846056911300E-018, -70.46021942008805200 ) ) ;
#198 = EDGE_CURVE ( 'NONE', #184, #74, #98, .T. ) ;
#199 = SURFACE_STYLE_USAGE ( .BOTH. , #77 ) ;
#200 = VECTOR ( 'NONE', #150, 1000.000000000000000 ) ;
#201 = LINE ( 'NONE', #197, #158 ) ;
#202 = MECHANICAL_DESIGN_GEOMETRIC_PRESENTATION_REPRESENTATION (  '', ( #5 ), #190 ) ;
#203 = ADVANCED_FACE ( 'NONE', ( #8 ), #133, .T. ) ;
#204 = CARTESIAN_POINT ( 'NONE',  ( 0.0000000000000000000, 1.178559999999995200, 9.020042813389211500E-017 ) ) ;
#205 = AXIS2_PLACEMENT_3D ( 'NONE', #193, #28, #76 ) ;
#206 = PRESENTATION_STYLE_ASSIGNMENT (( #199 ) ) ;
#207 = FACE_OUTER_BOUND ( 'NONE', #65, .T. ) ;
#208 = DIRECTION ( 'NONE',  ( 0.0000000000000000000, -1.000000000000000000, 0.0000000000000000000 ) ) ;
#209 =( LENGTH_UNIT ( ) NAMED_UNIT ( * ) SI_UNIT ( .MILLI., .METRE. ) );
#210 = CIRCLE ( 'NONE', #7, 1.473200000000003800 ) ;
#211 = ORIENTED_EDGE ( 'NONE', *, *, #59, .F. ) ;
#212 = FACE_OUTER_BOUND ( 'NONE', #29, .T. ) ;
#213 = DIRECTION ( 'NONE',  ( 0.0000000000000000000, 1.000000000000000000, -1.596318965955299700E-020 ) ) ;
#214 = FILL_AREA_STYLE_COLOUR ( '', #114 ) ;
ENDSEC;
END-ISO-10303-21;
