ISO-10303-21;
HEADER;
FILE_DESCRIPTION (( 'STEP AP214' ),
    '1' );
FILE_NAME ('03-1637.STEP',
    '2021-10-01T05:05:06',
    ( 'USER' ),
    ( '' ),
    'SwSTEP 2.0',
    'SolidWorks 2018',
    '' );
FILE_SCHEMA (( 'AUTOMOTIVE_DESIGN' ));
ENDSEC;

DATA;
#1 =( GEOMETRIC_REPRESENTATION_CONTEXT ( 3 ) GLOBAL_UNCERTAINTY_ASSIGNED_CONTEXT ( ( #209 ) ) GLOBAL_UNIT_ASSIGNED_CONTEXT ( ( #28, #161, #189 ) ) REPRESENTATION_CONTEXT ( 'NONE', 'WORKASPACE' ) );
#2 = SURFACE_SIDE_STYLE ('',( #128 ) ) ;
#3 = ORIENTED_EDGE ( 'NONE', *, *, #84, .T. ) ;
#4 = EDGE_LOOP ( 'NONE', ( #3 ) ) ;
#5 =( NAMED_UNIT ( * ) PLANE_ANGLE_UNIT ( ) SI_UNIT ( $, .RADIAN. ) );
#6 = DIRECTION ( 'NONE',  ( 1.000000000000000000, 0.0000000000000000000, 0.0000000000000000000 ) ) ;
#7 = FACE_OUTER_BOUND ( 'NONE', #4, .T. ) ;
#8 = ORIENTED_EDGE ( 'NONE', *, *, #151, .T. ) ;
#9 = AXIS2_PLACEMENT_3D ( 'NONE', #129, #125, #145 ) ;
#10 = SURFACE_SIDE_STYLE ('',( #38 ) ) ;
#11 = PRESENTATION_STYLE_ASSIGNMENT (( #100 ) ) ;
#12 = CIRCLE ( 'NONE', #22, 1.550000000000003819 ) ;
#13 = AXIS2_PLACEMENT_3D ( 'NONE', #68, #70, #90 ) ;
#14 = ORIENTED_EDGE ( 'NONE', *, *, #136, .T. ) ;
#15 = FACE_OUTER_BOUND ( 'NONE', #26, .T. ) ;
#16 = APPLICATION_PROTOCOL_DEFINITION ( 'draft international standard', 'automotive_design', 1998, #39 ) ;
#17 = CIRCLE ( 'NONE', #168, 1.550000000000008038 ) ;
#18 = DIRECTION ( 'NONE',  ( 1.000000000000000000, 0.0000000000000000000, 0.0000000000000000000 ) ) ;
#19 = APPLICATION_CONTEXT ( 'automotive_design' ) ;
#20 = AXIS2_PLACEMENT_3D ( 'NONE', #24, #198, #66 ) ;
#21 = CARTESIAN_POINT ( 'NONE',  ( 29.00000000000000355, 0.0000000000000000000, -1.550000000000003819 ) ) ;
#22 = AXIS2_PLACEMENT_3D ( 'NONE', #40, #110, #55 ) ;
#23 = ORIENTED_EDGE ( 'NONE', *, *, #123, .F. ) ;
#24 = CARTESIAN_POINT ( 'NONE',  ( -9.491012693391984829E-17, 0.0000000000000000000, 0.0000000000000000000 ) ) ;
#25 = FACE_OUTER_BOUND ( 'NONE', #150, .T. ) ;
#26 = EDGE_LOOP ( 'NONE', ( #14 ) ) ;
#27 =( GEOMETRIC_REPRESENTATION_CONTEXT ( 3 ) GLOBAL_UNCERTAINTY_ASSIGNED_CONTEXT ( ( #175 ) ) GLOBAL_UNIT_ASSIGNED_CONTEXT ( ( #30, #148, #105 ) ) REPRESENTATION_CONTEXT ( 'NONE', 'WORKASPACE' ) );
#28 =( LENGTH_UNIT ( ) NAMED_UNIT ( * ) SI_UNIT ( .MILLI., .METRE. ) );
#29 = DIRECTION ( 'NONE',  ( 0.0000000000000000000, 0.0000000000000000000, 1.000000000000000000 ) ) ;
#30 =( LENGTH_UNIT ( ) NAMED_UNIT ( * ) SI_UNIT ( .MILLI., .METRE. ) );
#31 = FILL_AREA_STYLE_COLOUR ( '', #114 ) ;
#32 = FACE_OUTER_BOUND ( 'NONE', #155, .T. ) ;
#33 = AXIS2_PLACEMENT_3D ( 'NONE', #188, #6, #99 ) ;
#34 = EDGE_CURVE ( 'NONE', #44, #44, #12, .T. ) ;
#35 = PRESENTATION_STYLE_ASSIGNMENT (( #173 ) ) ;
#36 = CLOSED_SHELL ( 'NONE', ( #61, #81, #201 ) ) ;
#37 = MECHANICAL_DESIGN_GEOMETRIC_PRESENTATION_REPRESENTATION (  '', ( #56 ), #27 ) ;
#38 = SURFACE_STYLE_FILL_AREA ( #178 ) ;
#39 = APPLICATION_CONTEXT ( 'automotive_design' ) ;
#40 = CARTESIAN_POINT ( 'NONE',  ( 29.00000000000000355, 0.0000000000000000000, 0.0000000000000000000 ) ) ;
#41 = FACE_OUTER_BOUND ( 'NONE', #111, .T. ) ;
#42 =( GEOMETRIC_REPRESENTATION_CONTEXT ( 3 ) GLOBAL_UNCERTAINTY_ASSIGNED_CONTEXT ( ( #167 ) ) GLOBAL_UNIT_ASSIGNED_CONTEXT ( ( #212, #118, #137 ) ) REPRESENTATION_CONTEXT ( 'NONE', 'WORKASPACE' ) );
#43 =( NAMED_UNIT ( * ) SI_UNIT ( $, .STERADIAN. ) SOLID_ANGLE_UNIT ( ) );
#44 = VERTEX_POINT ( 'NONE', #191 ) ;
#45 = PRESENTATION_LAYER_ASSIGNMENT (  '', '', ( #56 ) ) ;
#46 = ADVANCED_FACE ( 'NONE', ( #7 ), #184, .F. ) ;
#47 = CARTESIAN_POINT ( 'NONE',  ( 29.00000000000000355, 0.0000000000000000000, 0.0000000000000000000 ) ) ;
#48 = MECHANICAL_DESIGN_GEOMETRIC_PRESENTATION_REPRESENTATION (  '', ( #106 ), #42 ) ;
#49 = SURFACE_STYLE_FILL_AREA ( #171 ) ;
#50 = ORIENTED_EDGE ( 'NONE', *, *, #34, .T. ) ;
#51 = DIRECTION ( 'NONE',  ( 0.0000000000000000000, 0.0000000000000000000, -1.000000000000000000 ) ) ;
#52 = PRESENTATION_STYLE_ASSIGNMENT (( #121 ) ) ;
#53 = CONICAL_SURFACE ( 'NONE', #13, 2414.213562373047807, 1.178097245096165535 ) ;
#54 = FACE_OUTER_BOUND ( 'NONE', #116, .T. ) ;
#55 = DIRECTION ( 'NONE',  ( 0.0000000000000000000, 0.0000000000000000000, -1.000000000000000000 ) ) ;
#56 = STYLED_ITEM ( 'NONE', ( #52 ), #201 ) ;
#57 = PRODUCT_DEFINITION_CONTEXT ( 'detailed design', #39, 'design' ) ;
#58 = FILL_AREA_STYLE ('',( #31 ) ) ;
#59 = VERTEX_POINT ( 'NONE', #21 ) ;
#60 = ORIENTED_EDGE ( 'NONE', *, *, #151, .F. ) ;
#61 = ADVANCED_FACE ( 'NONE', ( #32 ), #192, .F. ) ;
#62 = SURFACE_STYLE_FILL_AREA ( #210 ) ;
#63 = SURFACE_SIDE_STYLE ('',( #172 ) ) ;
#64 = AXIS2_PLACEMENT_3D ( 'NONE', #194, #166, #208 ) ;
#65 = FACE_BOUND ( 'NONE', #193, .T. ) ;
#66 = DIRECTION ( 'NONE',  ( 0.0000000000000000000, 0.0000000000000000000, -1.000000000000000000 ) ) ;
#67 = UNCERTAINTY_MEASURE_WITH_UNIT (LENGTH_MEASURE( 1.000000000000000082E-05 ), #149, 'distance_accuracy_value', 'NONE');
#68 = CARTESIAN_POINT ( 'NONE',  ( -935.0000000000000000, 0.0000000000000000000, 0.0000000000000000000 ) ) ;
#69 = CIRCLE ( 'NONE', #20, 1.239999999999997993 ) ;
#70 = DIRECTION ( 'NONE',  ( -1.000000000000000000, -0.0000000000000000000, -0.0000000000000000000 ) ) ;
#71 =( GEOMETRIC_REPRESENTATION_CONTEXT ( 3 ) GLOBAL_UNCERTAINTY_ASSIGNED_CONTEXT ( ( #67 ) ) GLOBAL_UNIT_ASSIGNED_CONTEXT ( ( #149, #5, #135 ) ) REPRESENTATION_CONTEXT ( 'NONE', 'WORKASPACE' ) );
#72 = UNCERTAINTY_MEASURE_WITH_UNIT (LENGTH_MEASURE( 1.000000000000000082E-05 ), #104, 'distance_accuracy_value', 'NONE');
#73 = COLOUR_RGB ( '',0.7921568627450980005, 0.8196078431372548767, 0.9333333333333333481 ) ;
#74 = SURFACE_STYLE_USAGE ( .BOTH. , #156 ) ;
#75 = CYLINDRICAL_SURFACE ( 'NONE', #9, 1.550000000000003819 ) ;
#76 = DIRECTION ( 'NONE',  ( -1.000000000000000000, -0.0000000000000000000, -0.0000000000000000000 ) ) ;
#77 = PRESENTATION_LAYER_ASSIGNMENT (  '', '', ( #106 ) ) ;
#78 = FACE_OUTER_BOUND ( 'NONE', #131, .T. ) ;
#79 = FILL_AREA_STYLE_COLOUR ( '', #73 ) ;
#80 = EDGE_LOOP ( 'NONE', ( #196 ) ) ;
#81 = ADVANCED_FACE ( 'NONE', ( #41, #15 ), #75, .T. ) ;
#82 = MECHANICAL_DESIGN_GEOMETRIC_PRESENTATION_REPRESENTATION (  '', ( #122 ), #71 ) ;
#83 = DIRECTION ( 'NONE',  ( 1.000000000000000000, 0.0000000000000000000, 0.0000000000000000000 ) ) ;
#84 = EDGE_CURVE ( 'NONE', #87, #87, #69, .T. ) ;
#85 = DIRECTION ( 'NONE',  ( 0.0000000000000000000, 0.0000000000000000000, 1.000000000000000000 ) ) ;
#86 = CARTESIAN_POINT ( 'NONE',  ( 0.0000000000000000000, 0.0000000000000000000, 0.0000000000000000000 ) ) ;
#87 = VERTEX_POINT ( 'NONE', #88 ) ;
#88 = CARTESIAN_POINT ( 'NONE',  ( -9.491012693391984829E-17, 0.0000000000000000000, -1.239999999999997993 ) ) ;
#89 = DIRECTION ( 'NONE',  ( 0.0000000000000000000, 0.0000000000000000000, -1.000000000000000000 ) ) ;
#90 = DIRECTION ( 'NONE',  ( 0.0000000000000000000, 0.0000000000000000000, 1.000000000000000000 ) ) ;
#91 = DIRECTION ( 'NONE',  ( 1.000000000000000000, 0.0000000000000000000, 0.0000000000000000000 ) ) ;
#92 = DIRECTION ( 'NONE',  ( 0.0000000000000000000, 0.0000000000000000000, -1.000000000000000000 ) ) ;
#93 = CARTESIAN_POINT ( 'NONE',  ( 29.00000000000000355, 0.0000000000000000000, 0.0000000000000000000 ) ) ;
#94 = AXIS2_PLACEMENT_3D ( 'NONE', #179, #207, #109 ) ;
#95 = FACE_OUTER_BOUND ( 'NONE', #138, .T. ) ;
#96 = CYLINDRICAL_SURFACE ( 'NONE', #134, 1.550000000000003819 ) ;
#97 = COLOUR_RGB ( '',1.000000000000000000, 1.000000000000000000, 0.0000000000000000000 ) ;
#98 = PRESENTATION_LAYER_ASSIGNMENT (  '', '', ( #122 ) ) ;
#99 = DIRECTION ( 'NONE',  ( 0.0000000000000000000, 0.0000000000000000000, -1.000000000000000000 ) ) ;
#100 = SURFACE_STYLE_USAGE ( .BOTH. , #10 ) ;
#101 = COLOUR_RGB ( '',0.7921568627450980005, 0.8196078431372548767, 0.9333333333333333481 ) ;
#102 = PRODUCT_RELATED_PRODUCT_CATEGORY ( 'part', '', ( #205 ) ) ;
#103 = SURFACE_STYLE_USAGE ( .BOTH. , #181 ) ;
#104 =( LENGTH_UNIT ( ) NAMED_UNIT ( * ) SI_UNIT ( .MILLI., .METRE. ) );
#105 =( NAMED_UNIT ( * ) SI_UNIT ( $, .STERADIAN. ) SOLID_ANGLE_UNIT ( ) );
#106 = STYLED_ITEM ( 'NONE', ( #11 ), #81 ) ;
#107 = PRESENTATION_STYLE_ASSIGNMENT (( #103 ) ) ;
#108 = AXIS2_PLACEMENT_3D ( 'NONE', #47, #91, #92 ) ;
#109 = DIRECTION ( 'NONE',  ( 0.0000000000000000000, 0.0000000000000000000, -1.000000000000000000 ) ) ;
#110 = DIRECTION ( 'NONE',  ( 1.000000000000000000, 0.0000000000000000000, 0.0000000000000000000 ) ) ;
#111 = EDGE_LOOP ( 'NONE', ( #8 ) ) ;
#112 = FILL_AREA_STYLE_COLOUR ( '', #185 ) ;
#113 = ORIENTED_EDGE ( 'NONE', *, *, #84, .F. ) ;
#114 = COLOUR_RGB ( '',0.7921568627450980005, 0.8196078431372548767, 0.9333333333333333481 ) ;
#115 = PRODUCT_DEFINITION_FORMATION_WITH_SPECIFIED_SOURCE ( 'ANY', '', #205, .NOT_KNOWN. ) ;
#116 = EDGE_LOOP ( 'NONE', ( #50 ) ) ;
#117 = ORIENTED_EDGE ( 'NONE', *, *, #123, .T. ) ;
#118 =( NAMED_UNIT ( * ) PLANE_ANGLE_UNIT ( ) SI_UNIT ( $, .RADIAN. ) );
#119 = CONICAL_SURFACE ( 'NONE', #33, 1.239999999999997993, 0.7853981633974396193 ) ;
#120 = ADVANCED_FACE ( 'NONE', ( #78, #65 ), #119, .T. ) ;
#121 = SURFACE_STYLE_USAGE ( .BOTH. , #2 ) ;
#122 = STYLED_ITEM ( 'NONE', ( #140 ), #190 ) ;
#123 = EDGE_CURVE ( 'NONE', #199, #199, #142, .T. ) ;
#124 = PRODUCT_DEFINITION ( 'UNKNOWN', '', #115, #57 ) ;
#125 = DIRECTION ( 'NONE',  ( -1.000000000000000000, -0.0000000000000000000, -0.0000000000000000000 ) ) ;
#126 = APPLICATION_PROTOCOL_DEFINITION ( 'draft international standard', 'automotive_design', 1998, #19 ) ;
#127 =( NAMED_UNIT ( * ) SI_UNIT ( $, .STERADIAN. ) SOLID_ANGLE_UNIT ( ) );
#128 = SURFACE_STYLE_FILL_AREA ( #203 ) ;
#129 = CARTESIAN_POINT ( 'NONE',  ( 0.0000000000000000000, 0.0000000000000000000, 0.0000000000000000000 ) ) ;
#130 = DIRECTION ( 'NONE',  ( 0.0000000000000000000, 0.0000000000000000000, 1.000000000000000000 ) ) ;
#131 = EDGE_LOOP ( 'NONE', ( #23 ) ) ;
#132 = CLOSED_SHELL ( 'NONE', ( #141, #46, #120, #159 ) ) ;
#133 = MANIFOLD_SOLID_BREP ( 'ºÐÇÒ2[1]', #132 ) ;
#134 = AXIS2_PLACEMENT_3D ( 'NONE', #197, #211, #130 ) ;
#135 =( NAMED_UNIT ( * ) SI_UNIT ( $, .STERADIAN. ) SOLID_ANGLE_UNIT ( ) );
#136 = EDGE_CURVE ( 'NONE', #157, #157, #17, .T. ) ;
#137 =( NAMED_UNIT ( * ) SI_UNIT ( $, .STERADIAN. ) SOLID_ANGLE_UNIT ( ) );
#138 = EDGE_LOOP ( 'NONE', ( #117 ) ) ;
#139 = AXIS2_PLACEMENT_3D ( 'NONE', #86, #85, #83 ) ;
#140 = PRESENTATION_STYLE_ASSIGNMENT (( #74 ) ) ;
#141 = ADVANCED_FACE ( 'NONE', ( #95, #25 ), #96, .T. ) ;
#142 = CIRCLE ( 'NONE', #213, 1.550000000000003819 ) ;
#143 = UNCERTAINTY_MEASURE_WITH_UNIT (LENGTH_MEASURE( 1.000000000000000082E-05 ), #202, 'distance_accuracy_value', 'NONE');
#144 = SHAPE_DEFINITION_REPRESENTATION ( #164, #158 ) ;
#145 = DIRECTION ( 'NONE',  ( 0.0000000000000000000, 0.0000000000000000000, 1.000000000000000000 ) ) ;
#146 = CARTESIAN_POINT ( 'NONE',  ( 0.3100000000000111000, 0.0000000000000000000, 0.0000000000000000000 ) ) ;
#147 = AXIS2_PLACEMENT_3D ( 'NONE', #93, #160, #89 ) ;
#148 =( NAMED_UNIT ( * ) PLANE_ANGLE_UNIT ( ) SI_UNIT ( $, .RADIAN. ) );
#149 =( LENGTH_UNIT ( ) NAMED_UNIT ( * ) SI_UNIT ( .MILLI., .METRE. ) );
#150 = EDGE_LOOP ( 'NONE', ( #170 ) ) ;
#151 = EDGE_CURVE ( 'NONE', #59, #59, #162, .T. ) ;
#152 = FACE_OUTER_BOUND ( 'NONE', #80, .T. ) ;
#153 = CARTESIAN_POINT ( 'NONE',  ( 0.3100000000000111000, 0.0000000000000000000, -1.550000000000003819 ) ) ;
#154 = CARTESIAN_POINT ( 'NONE',  ( 64.35796897832169350, 0.0000000000000000000, 1.550000000000008038 ) ) ;
#155 = EDGE_LOOP ( 'NONE', ( #60 ) ) ;
#156 = SURFACE_SIDE_STYLE ('',( #49 ) ) ;
#157 = VERTEX_POINT ( 'NONE', #154 ) ;
#158 = ADVANCED_BREP_SHAPE_REPRESENTATION ( '03-1637', ( #133, #190, #139 ), #1 ) ;
#159 = ADVANCED_FACE ( 'NONE', ( #54 ), #163, .T. ) ;
#160 = DIRECTION ( 'NONE',  ( 1.000000000000000000, 0.0000000000000000000, 0.0000000000000000000 ) ) ;
#161 =( NAMED_UNIT ( * ) PLANE_ANGLE_UNIT ( ) SI_UNIT ( $, .RADIAN. ) );
#162 = CIRCLE ( 'NONE', #147, 1.550000000000003819 ) ;
#163 = PLANE ( 'NONE',  #108 ) ;
#164 = PRODUCT_DEFINITION_SHAPE ( 'NONE', 'NONE',  #124 ) ;
#165 = PRODUCT_CONTEXT ( 'NONE', #19, 'mechanical' ) ;
#166 = DIRECTION ( 'NONE',  ( 1.000000000000000000, 0.0000000000000000000, 0.0000000000000000000 ) ) ;
#167 = UNCERTAINTY_MEASURE_WITH_UNIT (LENGTH_MEASURE( 1.000000000000000082E-05 ), #212, 'distance_accuracy_value', 'NONE');
#168 = AXIS2_PLACEMENT_3D ( 'NONE', #182, #76, #29 ) ;
#169 = FILL_AREA_STYLE_COLOUR ( '', #101 ) ;
#170 = ORIENTED_EDGE ( 'NONE', *, *, #34, .F. ) ;
#171 = FILL_AREA_STYLE ('',( #79 ) ) ;
#172 = SURFACE_STYLE_FILL_AREA ( #58 ) ;
#173 = SURFACE_STYLE_USAGE ( .BOTH. , #63 ) ;
#174 =( GEOMETRIC_REPRESENTATION_CONTEXT ( 3 ) GLOBAL_UNCERTAINTY_ASSIGNED_CONTEXT ( ( #143 ) ) GLOBAL_UNIT_ASSIGNED_CONTEXT ( ( #202, #183, #43 ) ) REPRESENTATION_CONTEXT ( 'NONE', 'WORKASPACE' ) );
#175 = UNCERTAINTY_MEASURE_WITH_UNIT (LENGTH_MEASURE( 1.000000000000000082E-05 ), #30, 'distance_accuracy_value', 'NONE');
#176 =( GEOMETRIC_REPRESENTATION_CONTEXT ( 3 ) GLOBAL_UNCERTAINTY_ASSIGNED_CONTEXT ( ( #72 ) ) GLOBAL_UNIT_ASSIGNED_CONTEXT ( ( #104, #177, #127 ) ) REPRESENTATION_CONTEXT ( 'NONE', 'WORKASPACE' ) );
#177 =( NAMED_UNIT ( * ) PLANE_ANGLE_UNIT ( ) SI_UNIT ( $, .RADIAN. ) );
#178 = FILL_AREA_STYLE ('',( #112 ) ) ;
#179 = CARTESIAN_POINT ( 'NONE',  ( 29.00000000000000355, 0.0000000000000000000, 0.0000000000000000000 ) ) ;
#180 = MECHANICAL_DESIGN_GEOMETRIC_PRESENTATION_REPRESENTATION (  '', ( #200 ), #174 ) ;
#181 = SURFACE_SIDE_STYLE ('',( #62 ) ) ;
#182 = CARTESIAN_POINT ( 'NONE',  ( 64.35796897832169350, 0.0000000000000000000, 0.0000000000000000000 ) ) ;
#183 =( NAMED_UNIT ( * ) PLANE_ANGLE_UNIT ( ) SI_UNIT ( $, .RADIAN. ) );
#184 = PLANE ( 'NONE',  #64 ) ;
#185 = COLOUR_RGB ( '',1.000000000000000000, 1.000000000000000000, 0.0000000000000000000 ) ;
#186 = MECHANICAL_DESIGN_GEOMETRIC_PRESENTATION_REPRESENTATION (  '', ( #204 ), #176 ) ;
#187 = PRESENTATION_LAYER_ASSIGNMENT (  '', '', ( #200 ) ) ;
#188 = CARTESIAN_POINT ( 'NONE',  ( -9.491012693391984829E-17, 0.0000000000000000000, 0.0000000000000000000 ) ) ;
#189 =( NAMED_UNIT ( * ) SI_UNIT ( $, .STERADIAN. ) SOLID_ANGLE_UNIT ( ) );
#190 = MANIFOLD_SOLID_BREP ( 'ºÐÇÒ2[2]', #36 ) ;
#191 = CARTESIAN_POINT ( 'NONE',  ( 29.00000000000000355, 0.0000000000000000000, -1.550000000000003819 ) ) ;
#192 = PLANE ( 'NONE',  #94 ) ;
#193 = EDGE_LOOP ( 'NONE', ( #113 ) ) ;
#194 = CARTESIAN_POINT ( 'NONE',  ( -9.491012693391984829E-17, 1.549999999999999822, 0.0000000000000000000 ) ) ;
#195 = PRESENTATION_LAYER_ASSIGNMENT (  '', '', ( #204 ) ) ;
#196 = ORIENTED_EDGE ( 'NONE', *, *, #136, .F. ) ;
#197 = CARTESIAN_POINT ( 'NONE',  ( 0.0000000000000000000, 0.0000000000000000000, 0.0000000000000000000 ) ) ;
#198 = DIRECTION ( 'NONE',  ( -1.000000000000000000, -0.0000000000000000000, -0.0000000000000000000 ) ) ;
#199 = VERTEX_POINT ( 'NONE', #153 ) ;
#200 = STYLED_ITEM ( 'NONE', ( #35 ), #158 ) ;
#201 = ADVANCED_FACE ( 'NONE', ( #152 ), #53, .T. ) ;
#202 =( LENGTH_UNIT ( ) NAMED_UNIT ( * ) SI_UNIT ( .MILLI., .METRE. ) );
#203 = FILL_AREA_STYLE ('',( #206 ) ) ;
#204 = STYLED_ITEM ( 'NONE', ( #107 ), #133 ) ;
#205 = PRODUCT ( '03-1637', '03-1637', '', ( #165 ) ) ;
#206 = FILL_AREA_STYLE_COLOUR ( '', #97 ) ;
#207 = DIRECTION ( 'NONE',  ( 1.000000000000000000, 0.0000000000000000000, 0.0000000000000000000 ) ) ;
#208 = DIRECTION ( 'NONE',  ( 0.0000000000000000000, 0.0000000000000000000, -1.000000000000000000 ) ) ;
#209 = UNCERTAINTY_MEASURE_WITH_UNIT (LENGTH_MEASURE( 1.000000000000000082E-05 ), #28, 'distance_accuracy_value', 'NONE');
#210 = FILL_AREA_STYLE ('',( #169 ) ) ;
#211 = DIRECTION ( 'NONE',  ( -1.000000000000000000, -0.0000000000000000000, -0.0000000000000000000 ) ) ;
#212 =( LENGTH_UNIT ( ) NAMED_UNIT ( * ) SI_UNIT ( .MILLI., .METRE. ) );
#213 = AXIS2_PLACEMENT_3D ( 'NONE', #146, #18, #51 ) ;
ENDSEC;
END-ISO-10303-21;
