ISO-10303-21;
HEADER;
FILE_DESCRIPTION (( 'STEP AP214' ),
    '1' );
FILE_NAME ('03-1639.STEP',
    '2021-10-01T05:05:34',
    ( 'USER' ),
    ( '' ),
    'SwSTEP 2.0',
    'SolidWorks 2018',
    '' );
FILE_SCHEMA (( 'AUTOMOTIVE_DESIGN' ));
ENDSEC;

DATA;
#1 = ORIENTED_EDGE ( 'NONE', *, *, #211, .T. ) ;
#2 = MECHANICAL_DESIGN_GEOMETRIC_PRESENTATION_REPRESENTATION (  '', ( #196 ), #164 ) ;
#3 =( LENGTH_UNIT ( ) NAMED_UNIT ( * ) SI_UNIT ( .MILLI., .METRE. ) );
#4 = EDGE_LOOP ( 'NONE', ( #195 ) ) ;
#5 = PLANE ( 'NONE',  #183 ) ;
#6 = SURFACE_STYLE_FILL_AREA ( #23 ) ;
#7 = ADVANCED_FACE ( 'NONE', ( #167 ), #118, .F. ) ;
#8 = COLOUR_RGB ( '',1.000000000000000000, 1.000000000000000000, 0.0000000000000000000 ) ;
#9 = ORIENTED_EDGE ( 'NONE', *, *, #189, .F. ) ;
#10 = FILL_AREA_STYLE_COLOUR ( '', #73 ) ;
#11 = EDGE_LOOP ( 'NONE', ( #1 ) ) ;
#12 = COLOUR_RGB ( '',1.000000000000000000, 1.000000000000000000, 0.0000000000000000000 ) ;
#13 = STYLED_ITEM ( 'NONE', ( #38 ), #172 ) ;
#14 = DIRECTION ( 'NONE',  ( 1.000000000000000000, 0.0000000000000000000, 0.0000000000000000000 ) ) ;
#15 = DIRECTION ( 'NONE',  ( 0.0000000000000000000, 0.0000000000000000000, -1.000000000000000000 ) ) ;
#16 =( LENGTH_UNIT ( ) NAMED_UNIT ( * ) SI_UNIT ( .MILLI., .METRE. ) );
#17 =( NAMED_UNIT ( * ) SI_UNIT ( $, .STERADIAN. ) SOLID_ANGLE_UNIT ( ) );
#18 = DIRECTION ( 'NONE',  ( 0.0000000000000000000, 0.0000000000000000000, 1.000000000000000000 ) ) ;
#19 = EDGE_LOOP ( 'NONE', ( #104 ) ) ;
#20 =( NAMED_UNIT ( * ) SI_UNIT ( $, .STERADIAN. ) SOLID_ANGLE_UNIT ( ) );
#21 = DIRECTION ( 'NONE',  ( -1.000000000000000000, -0.0000000000000000000, -0.0000000000000000000 ) ) ;
#22 = MECHANICAL_DESIGN_GEOMETRIC_PRESENTATION_REPRESENTATION (  '', ( #93 ), #121 ) ;
#23 = FILL_AREA_STYLE ('',( #113 ) ) ;
#24 = CIRCLE ( 'NONE', #205, 1.650000000000003908 ) ;
#25 = AXIS2_PLACEMENT_3D ( 'NONE', #166, #46, #168 ) ;
#26 = UNCERTAINTY_MEASURE_WITH_UNIT (LENGTH_MEASURE( 1.000000000000000082E-05 ), #3, 'distance_accuracy_value', 'NONE');
#27 =( NAMED_UNIT ( * ) PLANE_ANGLE_UNIT ( ) SI_UNIT ( $, .RADIAN. ) );
#28 = ADVANCED_FACE ( 'NONE', ( #29 ), #87, .F. ) ;
#29 = FACE_OUTER_BOUND ( 'NONE', #178, .T. ) ;
#30 = CIRCLE ( 'NONE', #194, 1.650000000000007905 ) ;
#31 =( NAMED_UNIT ( * ) PLANE_ANGLE_UNIT ( ) SI_UNIT ( $, .RADIAN. ) );
#32 =( LENGTH_UNIT ( ) NAMED_UNIT ( * ) SI_UNIT ( .MILLI., .METRE. ) );
#33 = SURFACE_STYLE_USAGE ( .BOTH. , #37 ) ;
#34 = DIRECTION ( 'NONE',  ( -1.000000000000000000, -0.0000000000000000000, -0.0000000000000000000 ) ) ;
#35 = VERTEX_POINT ( 'NONE', #191 ) ;
#36 = AXIS2_PLACEMENT_3D ( 'NONE', #55, #34, #50 ) ;
#37 = SURFACE_SIDE_STYLE ('',( #53 ) ) ;
#38 = PRESENTATION_STYLE_ASSIGNMENT (( #192 ) ) ;
#39 = COLOUR_RGB ( '',0.7921568627450980005, 0.8196078431372548767, 0.9333333333333333481 ) ;
#40 = CARTESIAN_POINT ( 'NONE',  ( 0.3300000000000000711, 0.0000000000000000000, 0.0000000000000000000 ) ) ;
#41 = ORIENTED_EDGE ( 'NONE', *, *, #189, .T. ) ;
#42 = CARTESIAN_POINT ( 'NONE',  ( -1.010333609296566254E-16, 0.0000000000000000000, -1.320000000000001839 ) ) ;
#43 = PRODUCT_DEFINITION_SHAPE ( 'NONE', 'NONE',  #159 ) ;
#44 = SURFACE_SIDE_STYLE ('',( #109 ) ) ;
#45 = AXIS2_PLACEMENT_3D ( 'NONE', #130, #122, #91 ) ;
#46 = DIRECTION ( 'NONE',  ( 0.0000000000000000000, 0.0000000000000000000, 1.000000000000000000 ) ) ;
#47 = CLOSED_SHELL ( 'NONE', ( #7, #172, #54 ) ) ;
#48 = FACE_OUTER_BOUND ( 'NONE', #11, .T. ) ;
#49 = CARTESIAN_POINT ( 'NONE',  ( -1.010333609296566254E-16, 1.649999999999999911, 0.0000000000000000000 ) ) ;
#50 = DIRECTION ( 'NONE',  ( 0.0000000000000000000, 0.0000000000000000000, -1.000000000000000000 ) ) ;
#51 = UNCERTAINTY_MEASURE_WITH_UNIT (LENGTH_MEASURE( 1.000000000000000082E-05 ), #65, 'distance_accuracy_value', 'NONE');
#52 = CIRCLE ( 'NONE', #36, 1.320000000000001839 ) ;
#53 = SURFACE_STYLE_FILL_AREA ( #72 ) ;
#54 = ADVANCED_FACE ( 'NONE', ( #207 ), #59, .T. ) ;
#55 = CARTESIAN_POINT ( 'NONE',  ( -1.010333609296566254E-16, 0.0000000000000000000, 0.0000000000000000000 ) ) ;
#56 = PRESENTATION_LAYER_ASSIGNMENT (  '', '', ( #93 ) ) ;
#57 = VERTEX_POINT ( 'NONE', #89 ) ;
#58 = ORIENTED_EDGE ( 'NONE', *, *, #60, .T. ) ;
#59 = CONICAL_SURFACE ( 'NONE', #101, 2414.213562373071909, 1.178097245096169088 ) ;
#60 = EDGE_CURVE ( 'NONE', #145, #145, #52, .T. ) ;
#61 = PRESENTATION_STYLE_ASSIGNMENT (( #102 ) ) ;
#62 = DIRECTION ( 'NONE',  ( 0.0000000000000000000, 0.0000000000000000000, -1.000000000000000000 ) ) ;
#63 = FILL_AREA_STYLE ('',( #10 ) ) ;
#64 = CYLINDRICAL_SURFACE ( 'NONE', #179, 1.650000000000003908 ) ;
#65 =( LENGTH_UNIT ( ) NAMED_UNIT ( * ) SI_UNIT ( .MILLI., .METRE. ) );
#66 =( NAMED_UNIT ( * ) SI_UNIT ( $, .STERADIAN. ) SOLID_ANGLE_UNIT ( ) );
#67 = SURFACE_SIDE_STYLE ('',( #177 ) ) ;
#68 = PRODUCT_CONTEXT ( 'NONE', #140, 'mechanical' ) ;
#69 = DIRECTION ( 'NONE',  ( 1.000000000000000000, 0.0000000000000000000, 0.0000000000000000000 ) ) ;
#70 = CIRCLE ( 'NONE', #171, 1.650000000000003908 ) ;
#71 = CONICAL_SURFACE ( 'NONE', #188, 1.320000000000001839, 0.7853981633974509435 ) ;
#72 = FILL_AREA_STYLE ('',( #79 ) ) ;
#73 = COLOUR_RGB ( '',0.7921568627450980005, 0.8196078431372548767, 0.9333333333333333481 ) ;
#74 = FACE_BOUND ( 'NONE', #4, .T. ) ;
#75 = FACE_OUTER_BOUND ( 'NONE', #84, .T. ) ;
#76 = DIRECTION ( 'NONE',  ( 0.0000000000000000000, 0.0000000000000000000, 1.000000000000000000 ) ) ;
#77 =( GEOMETRIC_REPRESENTATION_CONTEXT ( 3 ) GLOBAL_UNCERTAINTY_ASSIGNED_CONTEXT ( ( #169 ) ) GLOBAL_UNIT_ASSIGNED_CONTEXT ( ( #32, #31, #66 ) ) REPRESENTATION_CONTEXT ( 'NONE', 'WORKASPACE' ) );
#78 = FACE_OUTER_BOUND ( 'NONE', #123, .T. ) ;
#79 = FILL_AREA_STYLE_COLOUR ( '', #39 ) ;
#80 = DIRECTION ( 'NONE',  ( 1.000000000000000000, 0.0000000000000000000, 0.0000000000000000000 ) ) ;
#81 = MECHANICAL_DESIGN_GEOMETRIC_PRESENTATION_REPRESENTATION (  '', ( #13 ), #142 ) ;
#82 = SURFACE_STYLE_FILL_AREA ( #203 ) ;
#83 =( NAMED_UNIT ( * ) SI_UNIT ( $, .STERADIAN. ) SOLID_ANGLE_UNIT ( ) );
#84 = EDGE_LOOP ( 'NONE', ( #92 ) ) ;
#85 = DIRECTION ( 'NONE',  ( 1.000000000000000000, 0.0000000000000000000, 0.0000000000000000000 ) ) ;
#86 =( LENGTH_UNIT ( ) NAMED_UNIT ( * ) SI_UNIT ( .MILLI., .METRE. ) );
#87 = PLANE ( 'NONE',  #209 ) ;
#88 = DIRECTION ( 'NONE',  ( -1.000000000000000000, -0.0000000000000000000, -0.0000000000000000000 ) ) ;
#89 = CARTESIAN_POINT ( 'NONE',  ( 0.3300000000000000711, 0.0000000000000000000, -1.650000000000003908 ) ) ;
#90 = UNCERTAINTY_MEASURE_WITH_UNIT (LENGTH_MEASURE( 1.000000000000000082E-05 ), #86, 'distance_accuracy_value', 'NONE');
#91 = DIRECTION ( 'NONE',  ( 0.0000000000000000000, 0.0000000000000000000, -1.000000000000000000 ) ) ;
#92 = ORIENTED_EDGE ( 'NONE', *, *, #211, .F. ) ;
#93 = STYLED_ITEM ( 'NONE', ( #61 ), #54 ) ;
#94 = APPLICATION_PROTOCOL_DEFINITION ( 'draft international standard', 'automotive_design', 1998, #182 ) ;
#95 = ORIENTED_EDGE ( 'NONE', *, *, #173, .T. ) ;
#96 =( GEOMETRIC_REPRESENTATION_CONTEXT ( 3 ) GLOBAL_UNCERTAINTY_ASSIGNED_CONTEXT ( ( #26 ) ) GLOBAL_UNIT_ASSIGNED_CONTEXT ( ( #3, #141, #20 ) ) REPRESENTATION_CONTEXT ( 'NONE', 'WORKASPACE' ) );
#97 = COLOUR_RGB ( '',0.7921568627450980005, 0.8196078431372548767, 0.9333333333333333481 ) ;
#98 =( LENGTH_UNIT ( ) NAMED_UNIT ( * ) SI_UNIT ( .MILLI., .METRE. ) );
#99 = MANIFOLD_SOLID_BREP ( 'ºÐÇÒ2[1]', #187 ) ;
#100 = FACE_OUTER_BOUND ( 'NONE', #19, .T. ) ;
#101 = AXIS2_PLACEMENT_3D ( 'NONE', #110, #114, #76 ) ;
#102 = SURFACE_STYLE_USAGE ( .BOTH. , #105 ) ;
#103 = ORIENTED_EDGE ( 'NONE', *, *, #173, .F. ) ;
#104 = ORIENTED_EDGE ( 'NONE', *, *, #181, .T. ) ;
#105 = SURFACE_SIDE_STYLE ('',( #6 ) ) ;
#106 = PRODUCT_RELATED_PRODUCT_CATEGORY ( 'part', '', ( #160 ) ) ;
#107 = CARTESIAN_POINT ( 'NONE',  ( 29.00000000000000355, 0.0000000000000000000, 0.0000000000000000000 ) ) ;
#108 = SURFACE_SIDE_STYLE ('',( #82 ) ) ;
#109 = SURFACE_STYLE_FILL_AREA ( #176 ) ;
#110 = CARTESIAN_POINT ( 'NONE',  ( -935.0000000000000000, 0.0000000000000000000, 0.0000000000000000000 ) ) ;
#111 = UNCERTAINTY_MEASURE_WITH_UNIT (LENGTH_MEASURE( 1.000000000000000082E-05 ), #16, 'distance_accuracy_value', 'NONE');
#112 =( NAMED_UNIT ( * ) PLANE_ANGLE_UNIT ( ) SI_UNIT ( $, .RADIAN. ) );
#113 = FILL_AREA_STYLE_COLOUR ( '', #12 ) ;
#114 = DIRECTION ( 'NONE',  ( -1.000000000000000000, -0.0000000000000000000, -0.0000000000000000000 ) ) ;
#115 = SURFACE_STYLE_USAGE ( .BOTH. , #67 ) ;
#116 = PRESENTATION_LAYER_ASSIGNMENT (  '', '', ( #13 ) ) ;
#117 = DIRECTION ( 'NONE',  ( 0.0000000000000000000, 0.0000000000000000000, -1.000000000000000000 ) ) ;
#118 = PLANE ( 'NONE',  #45 ) ;
#119 = CIRCLE ( 'NONE', #161, 1.650000000000003908 ) ;
#120 = ADVANCED_FACE ( 'NONE', ( #48, #184 ), #186, .T. ) ;
#121 =( GEOMETRIC_REPRESENTATION_CONTEXT ( 3 ) GLOBAL_UNCERTAINTY_ASSIGNED_CONTEXT ( ( #197 ) ) GLOBAL_UNIT_ASSIGNED_CONTEXT ( ( #98, #27, #83 ) ) REPRESENTATION_CONTEXT ( 'NONE', 'WORKASPACE' ) );
#122 = DIRECTION ( 'NONE',  ( 1.000000000000000000, 0.0000000000000000000, 0.0000000000000000000 ) ) ;
#123 = EDGE_LOOP ( 'NONE', ( #95 ) ) ;
#124 = DIRECTION ( 'NONE',  ( 0.0000000000000000000, 0.0000000000000000000, 1.000000000000000000 ) ) ;
#125 = DIRECTION ( 'NONE',  ( 0.0000000000000000000, 0.0000000000000000000, -1.000000000000000000 ) ) ;
#126 = CARTESIAN_POINT ( 'NONE',  ( 0.0000000000000000000, 0.0000000000000000000, 0.0000000000000000000 ) ) ;
#127 = APPLICATION_PROTOCOL_DEFINITION ( 'draft international standard', 'automotive_design', 1998, #140 ) ;
#128 = MECHANICAL_DESIGN_GEOMETRIC_PRESENTATION_REPRESENTATION (  '', ( #155 ), #77 ) ;
#129 = SURFACE_STYLE_USAGE ( .BOTH. , #44 ) ;
#130 = CARTESIAN_POINT ( 'NONE',  ( 29.00000000000000355, 0.0000000000000000000, 0.0000000000000000000 ) ) ;
#131 = PRODUCT_DEFINITION_FORMATION_WITH_SPECIFIED_SOURCE ( 'ANY', '', #160, .NOT_KNOWN. ) ;
#132 = ADVANCED_FACE ( 'NONE', ( #78 ), #5, .T. ) ;
#133 = ORIENTED_EDGE ( 'NONE', *, *, #181, .F. ) ;
#134 = PRESENTATION_LAYER_ASSIGNMENT (  '', '', ( #174 ) ) ;
#135 = CARTESIAN_POINT ( 'NONE',  ( 29.00000000000000355, 0.0000000000000000000, -1.650000000000003908 ) ) ;
#136 = CARTESIAN_POINT ( 'NONE',  ( -1.010333609296566254E-16, 0.0000000000000000000, 0.0000000000000000000 ) ) ;
#137 = VERTEX_POINT ( 'NONE', #148 ) ;
#138 = MANIFOLD_SOLID_BREP ( 'ºÐÇÒ2[2]', #47 ) ;
#139 =( NAMED_UNIT ( * ) PLANE_ANGLE_UNIT ( ) SI_UNIT ( $, .RADIAN. ) );
#140 = APPLICATION_CONTEXT ( 'automotive_design' ) ;
#141 =( NAMED_UNIT ( * ) PLANE_ANGLE_UNIT ( ) SI_UNIT ( $, .RADIAN. ) );
#142 =( GEOMETRIC_REPRESENTATION_CONTEXT ( 3 ) GLOBAL_UNCERTAINTY_ASSIGNED_CONTEXT ( ( #111 ) ) GLOBAL_UNIT_ASSIGNED_CONTEXT ( ( #16, #139, #150 ) ) REPRESENTATION_CONTEXT ( 'NONE', 'WORKASPACE' ) );
#143 = ADVANCED_BREP_SHAPE_REPRESENTATION ( '03-1639', ( #99, #138, #25 ), #210 ) ;
#144 = PRESENTATION_LAYER_ASSIGNMENT (  '', '', ( #155 ) ) ;
#145 = VERTEX_POINT ( 'NONE', #42 ) ;
#146 = MECHANICAL_DESIGN_GEOMETRIC_PRESENTATION_REPRESENTATION (  '', ( #174 ), #96 ) ;
#147 = EDGE_LOOP ( 'NONE', ( #41 ) ) ;
#148 = CARTESIAN_POINT ( 'NONE',  ( 64.31654762208438569, 0.0000000000000000000, 1.650000000000007905 ) ) ;
#149 = DIRECTION ( 'NONE',  ( 1.000000000000000000, 0.0000000000000000000, 0.0000000000000000000 ) ) ;
#150 =( NAMED_UNIT ( * ) SI_UNIT ( $, .STERADIAN. ) SOLID_ANGLE_UNIT ( ) );
#151 = PRESENTATION_STYLE_ASSIGNMENT (( #129 ) ) ;
#152 = FACE_OUTER_BOUND ( 'NONE', #147, .T. ) ;
#153 = SHAPE_DEFINITION_REPRESENTATION ( #43, #143 ) ;
#154 =( NAMED_UNIT ( * ) PLANE_ANGLE_UNIT ( ) SI_UNIT ( $, .RADIAN. ) );
#155 = STYLED_ITEM ( 'NONE', ( #212 ), #99 ) ;
#156 = CARTESIAN_POINT ( 'NONE',  ( 0.0000000000000000000, 0.0000000000000000000, 0.0000000000000000000 ) ) ;
#157 = CARTESIAN_POINT ( 'NONE',  ( 29.00000000000000355, 0.0000000000000000000, 0.0000000000000000000 ) ) ;
#158 = PRESENTATION_LAYER_ASSIGNMENT (  '', '', ( #196 ) ) ;
#159 = PRODUCT_DEFINITION ( 'UNKNOWN', '', #131, #170 ) ;
#160 = PRODUCT ( '03-1639', '03-1639', '', ( #68 ) ) ;
#161 = AXIS2_PLACEMENT_3D ( 'NONE', #175, #149, #15 ) ;
#162 = EDGE_LOOP ( 'NONE', ( #9 ) ) ;
#163 = DIRECTION ( 'NONE',  ( 0.0000000000000000000, 0.0000000000000000000, -1.000000000000000000 ) ) ;
#164 =( GEOMETRIC_REPRESENTATION_CONTEXT ( 3 ) GLOBAL_UNCERTAINTY_ASSIGNED_CONTEXT ( ( #51 ) ) GLOBAL_UNIT_ASSIGNED_CONTEXT ( ( #65, #154, #17 ) ) REPRESENTATION_CONTEXT ( 'NONE', 'WORKASPACE' ) );
#165 = DIRECTION ( 'NONE',  ( 0.0000000000000000000, 0.0000000000000000000, -1.000000000000000000 ) ) ;
#166 = CARTESIAN_POINT ( 'NONE',  ( 0.0000000000000000000, 0.0000000000000000000, 0.0000000000000000000 ) ) ;
#167 = FACE_OUTER_BOUND ( 'NONE', #208, .T. ) ;
#168 = DIRECTION ( 'NONE',  ( 1.000000000000000000, 0.0000000000000000000, 0.0000000000000000000 ) ) ;
#169 = UNCERTAINTY_MEASURE_WITH_UNIT (LENGTH_MEASURE( 1.000000000000000082E-05 ), #32, 'distance_accuracy_value', 'NONE');
#170 = PRODUCT_DEFINITION_CONTEXT ( 'detailed design', #182, 'design' ) ;
#171 = AXIS2_PLACEMENT_3D ( 'NONE', #107, #202, #125 ) ;
#172 = ADVANCED_FACE ( 'NONE', ( #100, #152 ), #64, .T. ) ;
#173 = EDGE_CURVE ( 'NONE', #35, #35, #70, .T. ) ;
#174 = STYLED_ITEM ( 'NONE', ( #151 ), #143 ) ;
#175 = CARTESIAN_POINT ( 'NONE',  ( 29.00000000000000355, 0.0000000000000000000, 0.0000000000000000000 ) ) ;
#176 = FILL_AREA_STYLE ('',( #204 ) ) ;
#177 = SURFACE_STYLE_FILL_AREA ( #63 ) ;
#178 = EDGE_LOOP ( 'NONE', ( #58 ) ) ;
#179 = AXIS2_PLACEMENT_3D ( 'NONE', #126, #88, #180 ) ;
#180 = DIRECTION ( 'NONE',  ( 0.0000000000000000000, 0.0000000000000000000, 1.000000000000000000 ) ) ;
#181 = EDGE_CURVE ( 'NONE', #199, #199, #119, .T. ) ;
#182 = APPLICATION_CONTEXT ( 'automotive_design' ) ;
#183 = AXIS2_PLACEMENT_3D ( 'NONE', #157, #80, #165 ) ;
#184 = FACE_OUTER_BOUND ( 'NONE', #198, .T. ) ;
#185 = ADVANCED_FACE ( 'NONE', ( #75, #74 ), #71, .T. ) ;
#186 = CYLINDRICAL_SURFACE ( 'NONE', #206, 1.650000000000003908 ) ;
#187 = CLOSED_SHELL ( 'NONE', ( #120, #28, #185, #132 ) ) ;
#188 = AXIS2_PLACEMENT_3D ( 'NONE', #136, #85, #62 ) ;
#189 = EDGE_CURVE ( 'NONE', #137, #137, #30, .T. ) ;
#190 = CARTESIAN_POINT ( 'NONE',  ( 64.31654762208438569, 0.0000000000000000000, 0.0000000000000000000 ) ) ;
#191 = CARTESIAN_POINT ( 'NONE',  ( 29.00000000000000355, 0.0000000000000000000, -1.650000000000003908 ) ) ;
#192 = SURFACE_STYLE_USAGE ( .BOTH. , #108 ) ;
#193 =( NAMED_UNIT ( * ) SI_UNIT ( $, .STERADIAN. ) SOLID_ANGLE_UNIT ( ) );
#194 = AXIS2_PLACEMENT_3D ( 'NONE', #190, #201, #124 ) ;
#195 = ORIENTED_EDGE ( 'NONE', *, *, #60, .F. ) ;
#196 = STYLED_ITEM ( 'NONE', ( #200 ), #138 ) ;
#197 = UNCERTAINTY_MEASURE_WITH_UNIT (LENGTH_MEASURE( 1.000000000000000082E-05 ), #98, 'distance_accuracy_value', 'NONE');
#198 = EDGE_LOOP ( 'NONE', ( #103 ) ) ;
#199 = VERTEX_POINT ( 'NONE', #135 ) ;
#200 = PRESENTATION_STYLE_ASSIGNMENT (( #115 ) ) ;
#201 = DIRECTION ( 'NONE',  ( -1.000000000000000000, -0.0000000000000000000, -0.0000000000000000000 ) ) ;
#202 = DIRECTION ( 'NONE',  ( 1.000000000000000000, 0.0000000000000000000, 0.0000000000000000000 ) ) ;
#203 = FILL_AREA_STYLE ('',( #213 ) ) ;
#204 = FILL_AREA_STYLE_COLOUR ( '', #97 ) ;
#205 = AXIS2_PLACEMENT_3D ( 'NONE', #40, #14, #163 ) ;
#206 = AXIS2_PLACEMENT_3D ( 'NONE', #156, #21, #18 ) ;
#207 = FACE_OUTER_BOUND ( 'NONE', #162, .T. ) ;
#208 = EDGE_LOOP ( 'NONE', ( #133 ) ) ;
#209 = AXIS2_PLACEMENT_3D ( 'NONE', #49, #69, #117 ) ;
#210 =( GEOMETRIC_REPRESENTATION_CONTEXT ( 3 ) GLOBAL_UNCERTAINTY_ASSIGNED_CONTEXT ( ( #90 ) ) GLOBAL_UNIT_ASSIGNED_CONTEXT ( ( #86, #112, #193 ) ) REPRESENTATION_CONTEXT ( 'NONE', 'WORKASPACE' ) );
#211 = EDGE_CURVE ( 'NONE', #57, #57, #24, .T. ) ;
#212 = PRESENTATION_STYLE_ASSIGNMENT (( #33 ) ) ;
#213 = FILL_AREA_STYLE_COLOUR ( '', #8 ) ;
ENDSEC;
END-ISO-10303-21;
