ISO-10303-21;
HEADER;
FILE_DESCRIPTION (( 'STEP AP214' ),
    '1' );
FILE_NAME ('03-1645.STEP',
    '2021-10-01T05:06:56',
    ( 'USER' ),
    ( '' ),
    'SwSTEP 2.0',
    'SolidWorks 2018',
    '' );
FILE_SCHEMA (( 'AUTOMOTIVE_DESIGN' ));
ENDSEC;

DATA;
#1 = PRESENTATION_STYLE_ASSIGNMENT (( #105 ) ) ;
#2 = DIRECTION ( 'NONE',  ( 1.000000000000000000, 0.0000000000000000000, 0.0000000000000000000 ) ) ;
#3 = EDGE_CURVE ( 'NONE', #69, #69, #75, .T. ) ;
#4 =( LENGTH_UNIT ( ) NAMED_UNIT ( * ) SI_UNIT ( .MILLI., .METRE. ) );
#5 = APPLICATION_CONTEXT ( 'automotive_design' ) ;
#6 = ORIENTED_EDGE ( 'NONE', *, *, #103, .F. ) ;
#7 = MANIFOLD_SOLID_BREP ( 'ºÐÇÒ2[1]', #11 ) ;
#8 = DIRECTION ( 'NONE',  ( 0.0000000000000000000, 0.0000000000000000000, -1.000000000000000000 ) ) ;
#9 = AXIS2_PLACEMENT_3D ( 'NONE', #183, #55, #8 ) ;
#10 =( NAMED_UNIT ( * ) PLANE_ANGLE_UNIT ( ) SI_UNIT ( $, .RADIAN. ) );
#11 = CLOSED_SHELL ( 'NONE', ( #117, #134, #212, #36 ) ) ;
#12 = PRODUCT_DEFINITION_CONTEXT ( 'detailed design', #5, 'design' ) ;
#13 = CARTESIAN_POINT ( 'NONE',  ( -1.194030629168669322E-16, 1.949999999999999956, 0.0000000000000000000 ) ) ;
#14 = FACE_OUTER_BOUND ( 'NONE', #157, .T. ) ;
#15 =( NAMED_UNIT ( * ) SI_UNIT ( $, .STERADIAN. ) SOLID_ANGLE_UNIT ( ) );
#16 = SURFACE_STYLE_FILL_AREA ( #140 ) ;
#17 = CARTESIAN_POINT ( 'NONE',  ( 32.00000000000000000, 0.0000000000000000000, 0.0000000000000000000 ) ) ;
#18 = CARTESIAN_POINT ( 'NONE',  ( 32.00000000000000000, 0.0000000000000000000, -1.950000000000004619 ) ) ;
#19 = ORIENTED_EDGE ( 'NONE', *, *, #186, .F. ) ;
#20 = FILL_AREA_STYLE_COLOUR ( '', #32 ) ;
#21 = MECHANICAL_DESIGN_GEOMETRIC_PRESENTATION_REPRESENTATION (  '', ( #64 ), #195 ) ;
#22 = ORIENTED_EDGE ( 'NONE', *, *, #175, .F. ) ;
#23 = FILL_AREA_STYLE_COLOUR ( '', #171 ) ;
#24 = SHAPE_DEFINITION_REPRESENTATION ( #106, #73 ) ;
#25 = DIRECTION ( 'NONE',  ( 0.0000000000000000000, 0.0000000000000000000, -1.000000000000000000 ) ) ;
#26 = FACE_OUTER_BOUND ( 'NONE', #80, .T. ) ;
#27 = AXIS2_PLACEMENT_3D ( 'NONE', #97, #2, #120 ) ;
#28 = CYLINDRICAL_SURFACE ( 'NONE', #113, 1.950000000000004619 ) ;
#29 =( NAMED_UNIT ( * ) PLANE_ANGLE_UNIT ( ) SI_UNIT ( $, .RADIAN. ) );
#30 =( LENGTH_UNIT ( ) NAMED_UNIT ( * ) SI_UNIT ( .MILLI., .METRE. ) );
#31 = PLANE ( 'NONE',  #40 ) ;
#32 = COLOUR_RGB ( '',0.7921568627450980005, 0.8196078431372548767, 0.9333333333333333481 ) ;
#33 = CARTESIAN_POINT ( 'NONE',  ( 74.19228355337244807, 0.0000000000000000000, 0.0000000000000000000 ) ) ;
#34 = PRESENTATION_LAYER_ASSIGNMENT (  '', '', ( #130 ) ) ;
#35 = CARTESIAN_POINT ( 'NONE',  ( 32.00000000000000000, 0.0000000000000000000, -1.950000000000004619 ) ) ;
#36 = ADVANCED_FACE ( 'NONE', ( #129 ), #189, .T. ) ;
#37 = SURFACE_SIDE_STYLE ('',( #16 ) ) ;
#38 = FACE_OUTER_BOUND ( 'NONE', #86, .T. ) ;
#39 =( NAMED_UNIT ( * ) SI_UNIT ( $, .STERADIAN. ) SOLID_ANGLE_UNIT ( ) );
#40 = AXIS2_PLACEMENT_3D ( 'NONE', #17, #96, #48 ) ;
#41 = UNCERTAINTY_MEASURE_WITH_UNIT (LENGTH_MEASURE( 1.000000000000000082E-05 ), #52, 'distance_accuracy_value', 'NONE');
#42 =( GEOMETRIC_REPRESENTATION_CONTEXT ( 3 ) GLOBAL_UNCERTAINTY_ASSIGNED_CONTEXT ( ( #153 ) ) GLOBAL_UNIT_ASSIGNED_CONTEXT ( ( #30, #149, #15 ) ) REPRESENTATION_CONTEXT ( 'NONE', 'WORKASPACE' ) );
#43 = MECHANICAL_DESIGN_GEOMETRIC_PRESENTATION_REPRESENTATION (  '', ( #47 ), #190 ) ;
#44 = UNCERTAINTY_MEASURE_WITH_UNIT (LENGTH_MEASURE( 1.000000000000000082E-05 ), #127, 'distance_accuracy_value', 'NONE');
#45 = SURFACE_STYLE_USAGE ( .BOTH. , #148 ) ;
#46 =( NAMED_UNIT ( * ) SI_UNIT ( $, .STERADIAN. ) SOLID_ANGLE_UNIT ( ) );
#47 = STYLED_ITEM ( 'NONE', ( #174 ), #59 ) ;
#48 = DIRECTION ( 'NONE',  ( 0.0000000000000000000, 0.0000000000000000000, -1.000000000000000000 ) ) ;
#49 = DIRECTION ( 'NONE',  ( 0.0000000000000000000, 0.0000000000000000000, 1.000000000000000000 ) ) ;
#50 = PRESENTATION_LAYER_ASSIGNMENT (  '', '', ( #64 ) ) ;
#51 = CARTESIAN_POINT ( 'NONE',  ( 0.0000000000000000000, 0.0000000000000000000, 0.0000000000000000000 ) ) ;
#52 =( LENGTH_UNIT ( ) NAMED_UNIT ( * ) SI_UNIT ( .MILLI., .METRE. ) );
#53 = AXIS2_PLACEMENT_3D ( 'NONE', #33, #150, #49 ) ;
#54 = CLOSED_SHELL ( 'NONE', ( #147, #59, #132 ) ) ;
#55 = DIRECTION ( 'NONE',  ( 1.000000000000000000, 0.0000000000000000000, 0.0000000000000000000 ) ) ;
#56 = AXIS2_PLACEMENT_3D ( 'NONE', #139, #62, #137 ) ;
#57 = AXIS2_PLACEMENT_3D ( 'NONE', #13, #213, #119 ) ;
#58 = EDGE_LOOP ( 'NONE', ( #146 ) ) ;
#59 = ADVANCED_FACE ( 'NONE', ( #88, #26 ), #28, .T. ) ;
#60 = AXIS2_PLACEMENT_3D ( 'NONE', #176, #81, #197 ) ;
#61 = DIRECTION ( 'NONE',  ( 0.0000000000000000000, 0.0000000000000000000, 1.000000000000000000 ) ) ;
#62 = DIRECTION ( 'NONE',  ( 1.000000000000000000, 0.0000000000000000000, 0.0000000000000000000 ) ) ;
#63 = UNCERTAINTY_MEASURE_WITH_UNIT (LENGTH_MEASURE( 1.000000000000000082E-05 ), #4, 'distance_accuracy_value', 'NONE');
#64 = STYLED_ITEM ( 'NONE', ( #182 ), #73 ) ;
#65 = VERTEX_POINT ( 'NONE', #35 ) ;
#66 = ORIENTED_EDGE ( 'NONE', *, *, #175, .T. ) ;
#67 =( NAMED_UNIT ( * ) SI_UNIT ( $, .STERADIAN. ) SOLID_ANGLE_UNIT ( ) );
#68 = UNCERTAINTY_MEASURE_WITH_UNIT (LENGTH_MEASURE( 1.000000000000000082E-05 ), #162, 'distance_accuracy_value', 'NONE');
#69 = VERTEX_POINT ( 'NONE', #123 ) ;
#70 = EDGE_LOOP ( 'NONE', ( #66 ) ) ;
#71 = FACE_OUTER_BOUND ( 'NONE', #100, .T. ) ;
#72 = PRESENTATION_LAYER_ASSIGNMENT (  '', '', ( #79 ) ) ;
#73 = ADVANCED_BREP_SHAPE_REPRESENTATION ( '03-1645', ( #7, #110, #208 ), #210 ) ;
#74 = CIRCLE ( 'NONE', #53, 1.950000000000009281 ) ;
#75 = CIRCLE ( 'NONE', #91, 1.950000000000004619 ) ;
#76 = MECHANICAL_DESIGN_GEOMETRIC_PRESENTATION_REPRESENTATION (  '', ( #130 ), #42 ) ;
#77 = CARTESIAN_POINT ( 'NONE',  ( 0.0000000000000000000, 0.0000000000000000000, 0.0000000000000000000 ) ) ;
#78 = FILL_AREA_STYLE_COLOUR ( '', #200 ) ;
#79 = STYLED_ITEM ( 'NONE', ( #1 ), #7 ) ;
#80 = EDGE_LOOP ( 'NONE', ( #169 ) ) ;
#81 = DIRECTION ( 'NONE',  ( 1.000000000000000000, 0.0000000000000000000, 0.0000000000000000000 ) ) ;
#82 =( NAMED_UNIT ( * ) SI_UNIT ( $, .STERADIAN. ) SOLID_ANGLE_UNIT ( ) );
#83 = DIRECTION ( 'NONE',  ( 0.0000000000000000000, 0.0000000000000000000, 1.000000000000000000 ) ) ;
#84 = SURFACE_SIDE_STYLE ('',( #138 ) ) ;
#85 =( NAMED_UNIT ( * ) PLANE_ANGLE_UNIT ( ) SI_UNIT ( $, .RADIAN. ) );
#86 = EDGE_LOOP ( 'NONE', ( #104 ) ) ;
#87 = AXIS2_PLACEMENT_3D ( 'NONE', #109, #92, #203 ) ;
#88 = FACE_OUTER_BOUND ( 'NONE', #70, .T. ) ;
#89 = PRODUCT ( '03-1645', '03-1645', '', ( #101 ) ) ;
#90 = ORIENTED_EDGE ( 'NONE', *, *, #3, .T. ) ;
#91 = AXIS2_PLACEMENT_3D ( 'NONE', #209, #179, #25 ) ;
#92 = DIRECTION ( 'NONE',  ( -1.000000000000000000, -0.0000000000000000000, -0.0000000000000000000 ) ) ;
#93 = AXIS2_PLACEMENT_3D ( 'NONE', #191, #116, #61 ) ;
#94 = DIRECTION ( 'NONE',  ( 0.0000000000000000000, 0.0000000000000000000, 1.000000000000000000 ) ) ;
#95 = CYLINDRICAL_SURFACE ( 'NONE', #180, 1.950000000000004619 ) ;
#96 = DIRECTION ( 'NONE',  ( 1.000000000000000000, 0.0000000000000000000, 0.0000000000000000000 ) ) ;
#97 = CARTESIAN_POINT ( 'NONE',  ( 32.00000000000000000, 0.0000000000000000000, 0.0000000000000000000 ) ) ;
#98 = CARTESIAN_POINT ( 'NONE',  ( -1.194030629168669322E-16, 0.0000000000000000000, -1.560000000000005826 ) ) ;
#99 = APPLICATION_PROTOCOL_DEFINITION ( 'draft international standard', 'automotive_design', 1998, #124 ) ;
#100 = EDGE_LOOP ( 'NONE', ( #90 ) ) ;
#101 = PRODUCT_CONTEXT ( 'NONE', #124, 'mechanical' ) ;
#102 = FILL_AREA_STYLE ('',( #23 ) ) ;
#103 = EDGE_CURVE ( 'NONE', #121, #121, #126, .T. ) ;
#104 = ORIENTED_EDGE ( 'NONE', *, *, #3, .F. ) ;
#105 = SURFACE_STYLE_USAGE ( .BOTH. , #84 ) ;
#106 = PRODUCT_DEFINITION_SHAPE ( 'NONE', 'NONE',  #172 ) ;
#107 = SURFACE_SIDE_STYLE ('',( #141 ) ) ;
#108 =( GEOMETRIC_REPRESENTATION_CONTEXT ( 3 ) GLOBAL_UNCERTAINTY_ASSIGNED_CONTEXT ( ( #44 ) ) GLOBAL_UNIT_ASSIGNED_CONTEXT ( ( #127, #10, #178 ) ) REPRESENTATION_CONTEXT ( 'NONE', 'WORKASPACE' ) );
#109 = CARTESIAN_POINT ( 'NONE',  ( -1.194030629168669322E-16, 0.0000000000000000000, 0.0000000000000000000 ) ) ;
#110 = MANIFOLD_SOLID_BREP ( 'ºÐÇÒ2[2]', #54 ) ;
#111 = FILL_AREA_STYLE ('',( #155 ) ) ;
#112 = VERTEX_POINT ( 'NONE', #193 ) ;
#113 = AXIS2_PLACEMENT_3D ( 'NONE', #77, #187, #114 ) ;
#114 = DIRECTION ( 'NONE',  ( 0.0000000000000000000, 0.0000000000000000000, 1.000000000000000000 ) ) ;
#115 = PRESENTATION_STYLE_ASSIGNMENT (( #136 ) ) ;
#116 = DIRECTION ( 'NONE',  ( -1.000000000000000000, -0.0000000000000000000, -0.0000000000000000000 ) ) ;
#117 = ADVANCED_FACE ( 'NONE', ( #71, #161 ), #95, .T. ) ;
#118 = SURFACE_SIDE_STYLE ('',( #159 ) ) ;
#119 = DIRECTION ( 'NONE',  ( 0.0000000000000000000, 0.0000000000000000000, -1.000000000000000000 ) ) ;
#120 = DIRECTION ( 'NONE',  ( 0.0000000000000000000, 0.0000000000000000000, -1.000000000000000000 ) ) ;
#121 = VERTEX_POINT ( 'NONE', #98 ) ;
#122 = EDGE_LOOP ( 'NONE', ( #6 ) ) ;
#123 = CARTESIAN_POINT ( 'NONE',  ( 0.3900000000000048428, 0.0000000000000000000, -1.950000000000004619 ) ) ;
#124 = APPLICATION_CONTEXT ( 'automotive_design' ) ;
#125 = APPLICATION_PROTOCOL_DEFINITION ( 'draft international standard', 'automotive_design', 1998, #5 ) ;
#126 = CIRCLE ( 'NONE', #87, 1.560000000000005826 ) ;
#127 =( LENGTH_UNIT ( ) NAMED_UNIT ( * ) SI_UNIT ( .MILLI., .METRE. ) );
#128 = CONICAL_SURFACE ( 'NONE', #93, 2414.213562373049172, 1.178097245096165757 ) ;
#129 = FACE_OUTER_BOUND ( 'NONE', #198, .T. ) ;
#130 = STYLED_ITEM ( 'NONE', ( #115 ), #110 ) ;
#131 = FACE_OUTER_BOUND ( 'NONE', #202, .T. ) ;
#132 = ADVANCED_FACE ( 'NONE', ( #14 ), #128, .T. ) ;
#133 = FILL_AREA_STYLE ('',( #78 ) ) ;
#134 = ADVANCED_FACE ( 'NONE', ( #131 ), #192, .F. ) ;
#135 = MECHANICAL_DESIGN_GEOMETRIC_PRESENTATION_REPRESENTATION (  '', ( #79 ), #108 ) ;
#136 = SURFACE_STYLE_USAGE ( .BOTH. , #118 ) ;
#137 = DIRECTION ( 'NONE',  ( 0.0000000000000000000, 0.0000000000000000000, -1.000000000000000000 ) ) ;
#138 = SURFACE_STYLE_FILL_AREA ( #184 ) ;
#139 = CARTESIAN_POINT ( 'NONE',  ( -1.194030629168669322E-16, 0.0000000000000000000, 0.0000000000000000000 ) ) ;
#140 = FILL_AREA_STYLE ('',( #20 ) ) ;
#141 = SURFACE_STYLE_FILL_AREA ( #102 ) ;
#142 = FILL_AREA_STYLE_COLOUR ( '', #185 ) ;
#143 = CARTESIAN_POINT ( 'NONE',  ( 0.0000000000000000000, 0.0000000000000000000, 0.0000000000000000000 ) ) ;
#144 = PRESENTATION_LAYER_ASSIGNMENT (  '', '', ( #47 ) ) ;
#145 = SURFACE_STYLE_FILL_AREA ( #133 ) ;
#146 = ORIENTED_EDGE ( 'NONE', *, *, #201, .F. ) ;
#147 = ADVANCED_FACE ( 'NONE', ( #168 ), #31, .F. ) ;
#148 = SURFACE_SIDE_STYLE ('',( #145 ) ) ;
#149 =( NAMED_UNIT ( * ) PLANE_ANGLE_UNIT ( ) SI_UNIT ( $, .RADIAN. ) );
#150 = DIRECTION ( 'NONE',  ( -1.000000000000000000, -0.0000000000000000000, -0.0000000000000000000 ) ) ;
#151 = EDGE_LOOP ( 'NONE', ( #22 ) ) ;
#152 = SURFACE_STYLE_USAGE ( .BOTH. , #37 ) ;
#153 = UNCERTAINTY_MEASURE_WITH_UNIT (LENGTH_MEASURE( 1.000000000000000082E-05 ), #30, 'distance_accuracy_value', 'NONE');
#154 = PRODUCT_RELATED_PRODUCT_CATEGORY ( 'part', '', ( #89 ) ) ;
#155 = FILL_AREA_STYLE_COLOUR ( '', #204 ) ;
#156 = VERTEX_POINT ( 'NONE', #18 ) ;
#157 = EDGE_LOOP ( 'NONE', ( #19 ) ) ;
#158 = PRESENTATION_LAYER_ASSIGNMENT (  '', '', ( #173 ) ) ;
#159 = SURFACE_STYLE_FILL_AREA ( #111 ) ;
#160 = FACE_BOUND ( 'NONE', #122, .T. ) ;
#161 = FACE_OUTER_BOUND ( 'NONE', #58, .T. ) ;
#162 =( LENGTH_UNIT ( ) NAMED_UNIT ( * ) SI_UNIT ( .MILLI., .METRE. ) );
#163 = CIRCLE ( 'NONE', #60, 1.950000000000004619 ) ;
#164 = PRODUCT_DEFINITION_FORMATION_WITH_SPECIFIED_SOURCE ( 'ANY', '', #89, .NOT_KNOWN. ) ;
#165 = ORIENTED_EDGE ( 'NONE', *, *, #201, .T. ) ;
#166 = MECHANICAL_DESIGN_GEOMETRIC_PRESENTATION_REPRESENTATION (  '', ( #173 ), #194 ) ;
#167 =( NAMED_UNIT ( * ) PLANE_ANGLE_UNIT ( ) SI_UNIT ( $, .RADIAN. ) );
#168 = FACE_OUTER_BOUND ( 'NONE', #151, .T. ) ;
#169 = ORIENTED_EDGE ( 'NONE', *, *, #186, .T. ) ;
#170 = UNCERTAINTY_MEASURE_WITH_UNIT (LENGTH_MEASURE( 1.000000000000000082E-05 ), #205, 'distance_accuracy_value', 'NONE');
#171 = COLOUR_RGB ( '',1.000000000000000000, 1.000000000000000000, 0.0000000000000000000 ) ;
#172 = PRODUCT_DEFINITION ( 'UNKNOWN', '', #164, #12 ) ;
#173 = STYLED_ITEM ( 'NONE', ( #181 ), #132 ) ;
#174 = PRESENTATION_STYLE_ASSIGNMENT (( #207 ) ) ;
#175 = EDGE_CURVE ( 'NONE', #156, #156, #206, .T. ) ;
#176 = CARTESIAN_POINT ( 'NONE',  ( 32.00000000000000000, 0.0000000000000000000, 0.0000000000000000000 ) ) ;
#177 =( NAMED_UNIT ( * ) PLANE_ANGLE_UNIT ( ) SI_UNIT ( $, .RADIAN. ) );
#178 =( NAMED_UNIT ( * ) SI_UNIT ( $, .STERADIAN. ) SOLID_ANGLE_UNIT ( ) );
#179 = DIRECTION ( 'NONE',  ( 1.000000000000000000, 0.0000000000000000000, 0.0000000000000000000 ) ) ;
#180 = AXIS2_PLACEMENT_3D ( 'NONE', #143, #211, #94 ) ;
#181 = PRESENTATION_STYLE_ASSIGNMENT (( #45 ) ) ;
#182 = PRESENTATION_STYLE_ASSIGNMENT (( #152 ) ) ;
#183 = CARTESIAN_POINT ( 'NONE',  ( 32.00000000000000000, 0.0000000000000000000, 0.0000000000000000000 ) ) ;
#184 = FILL_AREA_STYLE ('',( #142 ) ) ;
#185 = COLOUR_RGB ( '',0.7921568627450980005, 0.8196078431372548767, 0.9333333333333333481 ) ;
#186 = EDGE_CURVE ( 'NONE', #112, #112, #74, .T. ) ;
#187 = DIRECTION ( 'NONE',  ( -1.000000000000000000, -0.0000000000000000000, -0.0000000000000000000 ) ) ;
#188 = ORIENTED_EDGE ( 'NONE', *, *, #103, .T. ) ;
#189 = PLANE ( 'NONE',  #9 ) ;
#190 =( GEOMETRIC_REPRESENTATION_CONTEXT ( 3 ) GLOBAL_UNCERTAINTY_ASSIGNED_CONTEXT ( ( #170 ) ) GLOBAL_UNIT_ASSIGNED_CONTEXT ( ( #205, #85, #39 ) ) REPRESENTATION_CONTEXT ( 'NONE', 'WORKASPACE' ) );
#191 = CARTESIAN_POINT ( 'NONE',  ( -925.0000000000000000, 0.0000000000000000000, 0.0000000000000000000 ) ) ;
#192 = PLANE ( 'NONE',  #57 ) ;
#193 = CARTESIAN_POINT ( 'NONE',  ( 74.19228355337244807, 0.0000000000000000000, 1.950000000000009281 ) ) ;
#194 =( GEOMETRIC_REPRESENTATION_CONTEXT ( 3 ) GLOBAL_UNCERTAINTY_ASSIGNED_CONTEXT ( ( #68 ) ) GLOBAL_UNIT_ASSIGNED_CONTEXT ( ( #162, #29, #46 ) ) REPRESENTATION_CONTEXT ( 'NONE', 'WORKASPACE' ) );
#195 =( GEOMETRIC_REPRESENTATION_CONTEXT ( 3 ) GLOBAL_UNCERTAINTY_ASSIGNED_CONTEXT ( ( #41 ) ) GLOBAL_UNIT_ASSIGNED_CONTEXT ( ( #52, #167, #67 ) ) REPRESENTATION_CONTEXT ( 'NONE', 'WORKASPACE' ) );
#196 = CONICAL_SURFACE ( 'NONE', #56, 1.560000000000005826, 0.7853981633974405074 ) ;
#197 = DIRECTION ( 'NONE',  ( 0.0000000000000000000, 0.0000000000000000000, -1.000000000000000000 ) ) ;
#198 = EDGE_LOOP ( 'NONE', ( #165 ) ) ;
#199 = DIRECTION ( 'NONE',  ( 1.000000000000000000, 0.0000000000000000000, 0.0000000000000000000 ) ) ;
#200 = COLOUR_RGB ( '',1.000000000000000000, 1.000000000000000000, 0.0000000000000000000 ) ;
#201 = EDGE_CURVE ( 'NONE', #65, #65, #163, .T. ) ;
#202 = EDGE_LOOP ( 'NONE', ( #188 ) ) ;
#203 = DIRECTION ( 'NONE',  ( 0.0000000000000000000, 0.0000000000000000000, -1.000000000000000000 ) ) ;
#204 = COLOUR_RGB ( '',0.7921568627450980005, 0.8196078431372548767, 0.9333333333333333481 ) ;
#205 =( LENGTH_UNIT ( ) NAMED_UNIT ( * ) SI_UNIT ( .MILLI., .METRE. ) );
#206 = CIRCLE ( 'NONE', #27, 1.950000000000004619 ) ;
#207 = SURFACE_STYLE_USAGE ( .BOTH. , #107 ) ;
#208 = AXIS2_PLACEMENT_3D ( 'NONE', #51, #83, #199 ) ;
#209 = CARTESIAN_POINT ( 'NONE',  ( 0.3900000000000048428, 0.0000000000000000000, 0.0000000000000000000 ) ) ;
#210 =( GEOMETRIC_REPRESENTATION_CONTEXT ( 3 ) GLOBAL_UNCERTAINTY_ASSIGNED_CONTEXT ( ( #63 ) ) GLOBAL_UNIT_ASSIGNED_CONTEXT ( ( #4, #177, #82 ) ) REPRESENTATION_CONTEXT ( 'NONE', 'WORKASPACE' ) );
#211 = DIRECTION ( 'NONE',  ( -1.000000000000000000, -0.0000000000000000000, -0.0000000000000000000 ) ) ;
#212 = ADVANCED_FACE ( 'NONE', ( #38, #160 ), #196, .T. ) ;
#213 = DIRECTION ( 'NONE',  ( 1.000000000000000000, 0.0000000000000000000, 0.0000000000000000000 ) ) ;
ENDSEC;
END-ISO-10303-21;
