ISO-10303-21;
HEADER;
FILE_DESCRIPTION (( 'STEP AP214' ),
    '1' );
FILE_NAME ('03-1718.STEP',
    '2021-10-01T05:49:04',
    ( 'USER' ),
    ( '' ),
    'SwSTEP 2.0',
    'SolidWorks 2018',
    '' );
FILE_SCHEMA (( 'AUTOMOTIVE_DESIGN' ));
ENDSEC;

DATA;
#1 = ADVANCED_FACE ( 'NONE', ( #16 ), #33, .T. ) ;
#2 = EDGE_LOOP ( 'NONE', ( #57 ) ) ;
#3 = VERTEX_POINT ( 'NONE', #130 ) ;
#4 = SHAPE_DEFINITION_REPRESENTATION ( #161, #123 ) ;
#5 = DIRECTION ( 'NONE',  ( 1.000000000000000000, 0.0000000000000000000, 0.0000000000000000000 ) ) ;
#6 = SURFACE_STYLE_FILL_AREA ( #114 ) ;
#7 = PRESENTATION_STYLE_ASSIGNMENT (( #146 ) ) ;
#8 = CONICAL_SURFACE ( 'NONE', #178, 2414.213562373055083, 1.178097245096166645 ) ;
#9 =( NAMED_UNIT ( * ) PLANE_ANGLE_UNIT ( ) SI_UNIT ( $, .RADIAN. ) );
#10 = SURFACE_SIDE_STYLE ('',( #6 ) ) ;
#11 = ORIENTED_EDGE ( 'NONE', *, *, #83, .T. ) ;
#12 = FACE_OUTER_BOUND ( 'NONE', #2, .T. ) ;
#13 = FACE_OUTER_BOUND ( 'NONE', #64, .T. ) ;
#14 = FILL_AREA_STYLE_COLOUR ( '', #103 ) ;
#15 = FACE_OUTER_BOUND ( 'NONE', #189, .T. ) ;
#16 = FACE_OUTER_BOUND ( 'NONE', #137, .T. ) ;
#17 =( GEOMETRIC_REPRESENTATION_CONTEXT ( 3 ) GLOBAL_UNCERTAINTY_ASSIGNED_CONTEXT ( ( #201 ) ) GLOBAL_UNIT_ASSIGNED_CONTEXT ( ( #32, #147, #162 ) ) REPRESENTATION_CONTEXT ( 'NONE', 'WORKASPACE' ) );
#18 = SURFACE_STYLE_FILL_AREA ( #124 ) ;
#19 = AXIS2_PLACEMENT_3D ( 'NONE', #187, #25, #133 ) ;
#20 = ADVANCED_FACE ( 'NONE', ( #12 ), #80, .F. ) ;
#21 = UNCERTAINTY_MEASURE_WITH_UNIT (LENGTH_MEASURE( 1.000000000000000082E-05 ), #50, 'distance_accuracy_value', 'NONE');
#22 = PRESENTATION_STYLE_ASSIGNMENT (( #53 ) ) ;
#23 = EDGE_LOOP ( 'NONE', ( #152 ) ) ;
#24 =( GEOMETRIC_REPRESENTATION_CONTEXT ( 3 ) GLOBAL_UNCERTAINTY_ASSIGNED_CONTEXT ( ( #104 ) ) GLOBAL_UNIT_ASSIGNED_CONTEXT ( ( #59, #173, #193 ) ) REPRESENTATION_CONTEXT ( 'NONE', 'WORKASPACE' ) );
#25 = DIRECTION ( 'NONE',  ( -1.000000000000000000, -0.0000000000000000000, -0.0000000000000000000 ) ) ;
#26 = SURFACE_SIDE_STYLE ('',( #18 ) ) ;
#27 = CIRCLE ( 'NONE', #168, 4.479999999999997762 ) ;
#28 = FACE_OUTER_BOUND ( 'NONE', #23, .T. ) ;
#29 = DIRECTION ( 'NONE',  ( 1.000000000000000000, 0.0000000000000000000, 0.0000000000000000000 ) ) ;
#30 = VERTEX_POINT ( 'NONE', #163 ) ;
#31 = CARTESIAN_POINT ( 'NONE',  ( 0.0000000000000000000, 0.0000000000000000000, 0.0000000000000000000 ) ) ;
#32 =( LENGTH_UNIT ( ) NAMED_UNIT ( * ) SI_UNIT ( .MILLI., .METRE. ) );
#33 = PLANE ( 'NONE',  #154 ) ;
#34 = PRODUCT_DEFINITION ( 'UNKNOWN', '', #56, #70 ) ;
#35 = CARTESIAN_POINT ( 'NONE',  ( 47.99999999999998579, 0.0000000000000000000, 0.0000000000000000000 ) ) ;
#36 =( GEOMETRIC_REPRESENTATION_CONTEXT ( 3 ) GLOBAL_UNCERTAINTY_ASSIGNED_CONTEXT ( ( #158 ) ) GLOBAL_UNIT_ASSIGNED_CONTEXT ( ( #165, #67, #150 ) ) REPRESENTATION_CONTEXT ( 'NONE', 'WORKASPACE' ) );
#37 = SURFACE_SIDE_STYLE ('',( #170 ) ) ;
#38 = AXIS2_PLACEMENT_3D ( 'NONE', #175, #5, #157 ) ;
#39 = ORIENTED_EDGE ( 'NONE', *, *, #112, .T. ) ;
#40 = PRESENTATION_STYLE_ASSIGNMENT (( #208 ) ) ;
#41 = ADVANCED_FACE ( 'NONE', ( #15, #13 ), #68, .T. ) ;
#42 = CIRCLE ( 'NONE', #199, 5.600000000000009415 ) ;
#43 = DIRECTION ( 'NONE',  ( 1.000000000000000000, 0.0000000000000000000, 0.0000000000000000000 ) ) ;
#44 = FACE_OUTER_BOUND ( 'NONE', #74, .T. ) ;
#45 = UNCERTAINTY_MEASURE_WITH_UNIT (LENGTH_MEASURE( 1.000000000000000082E-05 ), #116, 'distance_accuracy_value', 'NONE');
#46 = FILL_AREA_STYLE_COLOUR ( '', #48 ) ;
#47 = COLOUR_RGB ( '',1.000000000000000000, 1.000000000000000000, 0.0000000000000000000 ) ;
#48 = COLOUR_RGB ( '',0.7921568627450980005, 0.8196078431372548767, 0.9333333333333333481 ) ;
#49 = AXIS2_PLACEMENT_3D ( 'NONE', #107, #61, #82 ) ;
#50 =( LENGTH_UNIT ( ) NAMED_UNIT ( * ) SI_UNIT ( .MILLI., .METRE. ) );
#51 = DIRECTION ( 'NONE',  ( 0.0000000000000000000, 0.0000000000000000000, -1.000000000000000000 ) ) ;
#52 = CIRCLE ( 'NONE', #49, 5.600000000000017408 ) ;
#53 = SURFACE_STYLE_USAGE ( .BOTH. , #37 ) ;
#54 = CIRCLE ( 'NONE', #203, 5.600000000000009415 ) ;
#55 = CLOSED_SHELL ( 'NONE', ( #20, #166, #89 ) ) ;
#56 = PRODUCT_DEFINITION_FORMATION_WITH_SPECIFIED_SOURCE ( 'ANY', '', #87, .NOT_KNOWN. ) ;
#57 = ORIENTED_EDGE ( 'NONE', *, *, #188, .F. ) ;
#58 = FILL_AREA_STYLE_COLOUR ( '', #71 ) ;
#59 =( LENGTH_UNIT ( ) NAMED_UNIT ( * ) SI_UNIT ( .MILLI., .METRE. ) );
#60 = UNCERTAINTY_MEASURE_WITH_UNIT (LENGTH_MEASURE( 1.000000000000000082E-05 ), #110, 'distance_accuracy_value', 'NONE');
#61 = DIRECTION ( 'NONE',  ( -1.000000000000000000, -0.0000000000000000000, -0.0000000000000000000 ) ) ;
#62 = DIRECTION ( 'NONE',  ( 0.0000000000000000000, 0.0000000000000000000, -1.000000000000000000 ) ) ;
#63 =( NAMED_UNIT ( * ) SI_UNIT ( $, .STERADIAN. ) SOLID_ANGLE_UNIT ( ) );
#64 = EDGE_LOOP ( 'NONE', ( #106 ) ) ;
#65 =( GEOMETRIC_REPRESENTATION_CONTEXT ( 3 ) GLOBAL_UNCERTAINTY_ASSIGNED_CONTEXT ( ( #45 ) ) GLOBAL_UNIT_ASSIGNED_CONTEXT ( ( #116, #94, #85 ) ) REPRESENTATION_CONTEXT ( 'NONE', 'WORKASPACE' ) );
#66 = CARTESIAN_POINT ( 'NONE',  ( 47.99999999999998579, 0.0000000000000000000, -5.600000000000009415 ) ) ;
#67 =( NAMED_UNIT ( * ) PLANE_ANGLE_UNIT ( ) SI_UNIT ( $, .RADIAN. ) );
#68 = CYLINDRICAL_SURFACE ( 'NONE', #19, 5.600000000000009415 ) ;
#69 = PRESENTATION_LAYER_ASSIGNMENT (  '', '', ( #97 ) ) ;
#70 = PRODUCT_DEFINITION_CONTEXT ( 'detailed design', #212, 'design' ) ;
#71 = COLOUR_RGB ( '',1.000000000000000000, 1.000000000000000000, 0.0000000000000000000 ) ;
#72 = CIRCLE ( 'NONE', #183, 5.600000000000009415 ) ;
#73 = CARTESIAN_POINT ( 'NONE',  ( 47.99999999999998579, 0.0000000000000000000, 0.0000000000000000000 ) ) ;
#74 = EDGE_LOOP ( 'NONE', ( #109 ) ) ;
#75 = CYLINDRICAL_SURFACE ( 'NONE', #186, 5.600000000000009415 ) ;
#76 = VERTEX_POINT ( 'NONE', #179 ) ;
#77 = DIRECTION ( 'NONE',  ( -1.000000000000000000, -0.0000000000000000000, -0.0000000000000000000 ) ) ;
#78 = FACE_OUTER_BOUND ( 'NONE', #105, .T. ) ;
#79 = CONICAL_SURFACE ( 'NONE', #38, 4.479999999999997762, 0.7853981633974498333 ) ;
#80 = PLANE ( 'NONE',  #122 ) ;
#81 = CARTESIAN_POINT ( 'NONE',  ( -3.429011037612589769E-16, 0.0000000000000000000, 0.0000000000000000000 ) ) ;
#82 = DIRECTION ( 'NONE',  ( 0.0000000000000000000, 0.0000000000000000000, 1.000000000000000000 ) ) ;
#83 = EDGE_CURVE ( 'NONE', #76, #76, #72, .T. ) ;
#84 = DIRECTION ( 'NONE',  ( 0.0000000000000000000, 0.0000000000000000000, 1.000000000000000000 ) ) ;
#85 =( NAMED_UNIT ( * ) SI_UNIT ( $, .STERADIAN. ) SOLID_ANGLE_UNIT ( ) );
#86 = DIRECTION ( 'NONE',  ( 0.0000000000000000000, 0.0000000000000000000, 1.000000000000000000 ) ) ;
#87 = PRODUCT ( '03-1718', '03-1718', '', ( #99 ) ) ;
#88 = MECHANICAL_DESIGN_GEOMETRIC_PRESENTATION_REPRESENTATION (  '', ( #97 ), #24 ) ;
#89 = ADVANCED_FACE ( 'NONE', ( #78 ), #8, .T. ) ;
#90 = EDGE_CURVE ( 'NONE', #131, #131, #27, .T. ) ;
#91 = DIRECTION ( 'NONE',  ( 1.000000000000000000, 0.0000000000000000000, 0.0000000000000000000 ) ) ;
#92 = DIRECTION ( 'NONE',  ( 1.000000000000000000, 0.0000000000000000000, 0.0000000000000000000 ) ) ;
#93 = SURFACE_STYLE_FILL_AREA ( #141 ) ;
#94 =( NAMED_UNIT ( * ) PLANE_ANGLE_UNIT ( ) SI_UNIT ( $, .RADIAN. ) );
#95 = FILL_AREA_STYLE_COLOUR ( '', #47 ) ;
#96 = EDGE_LOOP ( 'NONE', ( #185 ) ) ;
#97 = STYLED_ITEM ( 'NONE', ( #113 ), #89 ) ;
#98 = APPLICATION_PROTOCOL_DEFINITION ( 'draft international standard', 'automotive_design', 1998, #117 ) ;
#99 = PRODUCT_CONTEXT ( 'NONE', #117, 'mechanical' ) ;
#100 = EDGE_CURVE ( 'NONE', #3, #3, #54, .T. ) ;
#101 = CLOSED_SHELL ( 'NONE', ( #41, #153, #102, #1 ) ) ;
#102 = ADVANCED_FACE ( 'NONE', ( #44, #169 ), #79, .T. ) ;
#103 = COLOUR_RGB ( '',0.7921568627450980005, 0.8196078431372548767, 0.9333333333333333481 ) ;
#104 = UNCERTAINTY_MEASURE_WITH_UNIT (LENGTH_MEASURE( 1.000000000000000082E-05 ), #59, 'distance_accuracy_value', 'NONE');
#105 = EDGE_LOOP ( 'NONE', ( #176 ) ) ;
#106 = ORIENTED_EDGE ( 'NONE', *, *, #83, .F. ) ;
#107 = CARTESIAN_POINT ( 'NONE',  ( 139.6804040507106208, 0.0000000000000000000, 0.0000000000000000000 ) ) ;
#108 = DIRECTION ( 'NONE',  ( 0.0000000000000000000, 0.0000000000000000000, 1.000000000000000000 ) ) ;
#109 = ORIENTED_EDGE ( 'NONE', *, *, #100, .F. ) ;
#110 =( LENGTH_UNIT ( ) NAMED_UNIT ( * ) SI_UNIT ( .MILLI., .METRE. ) );
#111 = DIRECTION ( 'NONE',  ( -1.000000000000000000, -0.0000000000000000000, -0.0000000000000000000 ) ) ;
#112 = EDGE_CURVE ( 'NONE', #30, #30, #52, .T. ) ;
#113 = PRESENTATION_STYLE_ASSIGNMENT (( #156 ) ) ;
#114 = FILL_AREA_STYLE ('',( #210 ) ) ;
#115 = FACE_OUTER_BOUND ( 'NONE', #96, .T. ) ;
#116 =( LENGTH_UNIT ( ) NAMED_UNIT ( * ) SI_UNIT ( .MILLI., .METRE. ) );
#117 = APPLICATION_CONTEXT ( 'automotive_design' ) ;
#118 = APPLICATION_PROTOCOL_DEFINITION ( 'draft international standard', 'automotive_design', 1998, #212 ) ;
#119 = SURFACE_STYLE_FILL_AREA ( #206 ) ;
#120 =( GEOMETRIC_REPRESENTATION_CONTEXT ( 3 ) GLOBAL_UNCERTAINTY_ASSIGNED_CONTEXT ( ( #60 ) ) GLOBAL_UNIT_ASSIGNED_CONTEXT ( ( #110, #9, #127 ) ) REPRESENTATION_CONTEXT ( 'NONE', 'WORKASPACE' ) );
#121 = EDGE_LOOP ( 'NONE', ( #135 ) ) ;
#122 = AXIS2_PLACEMENT_3D ( 'NONE', #73, #43, #62 ) ;
#123 = ADVANCED_BREP_SHAPE_REPRESENTATION ( '03-1718', ( #142, #181, #211 ), #65 ) ;
#124 = FILL_AREA_STYLE ('',( #58 ) ) ;
#125 = CARTESIAN_POINT ( 'NONE',  ( 1.120000000000007656, 0.0000000000000000000, 0.0000000000000000000 ) ) ;
#126 = STYLED_ITEM ( 'NONE', ( #7 ), #166 ) ;
#127 =( NAMED_UNIT ( * ) SI_UNIT ( $, .STERADIAN. ) SOLID_ANGLE_UNIT ( ) );
#128 = SURFACE_SIDE_STYLE ('',( #119 ) ) ;
#129 = SURFACE_STYLE_USAGE ( .BOTH. , #10 ) ;
#130 = CARTESIAN_POINT ( 'NONE',  ( 1.120000000000007656, 0.0000000000000000000, -5.600000000000009415 ) ) ;
#131 = VERTEX_POINT ( 'NONE', #198 ) ;
#132 = FILL_AREA_STYLE ('',( #14 ) ) ;
#133 = DIRECTION ( 'NONE',  ( 0.0000000000000000000, 0.0000000000000000000, 1.000000000000000000 ) ) ;
#134 = FACE_OUTER_BOUND ( 'NONE', #182, .T. ) ;
#135 = ORIENTED_EDGE ( 'NONE', *, *, #90, .F. ) ;
#136 =( GEOMETRIC_REPRESENTATION_CONTEXT ( 3 ) GLOBAL_UNCERTAINTY_ASSIGNED_CONTEXT ( ( #21 ) ) GLOBAL_UNIT_ASSIGNED_CONTEXT ( ( #50, #160, #63 ) ) REPRESENTATION_CONTEXT ( 'NONE', 'WORKASPACE' ) );
#137 = EDGE_LOOP ( 'NONE', ( #11 ) ) ;
#138 = MECHANICAL_DESIGN_GEOMETRIC_PRESENTATION_REPRESENTATION (  '', ( #196 ), #120 ) ;
#139 = VERTEX_POINT ( 'NONE', #66 ) ;
#140 = PRESENTATION_LAYER_ASSIGNMENT (  '', '', ( #126 ) ) ;
#141 = FILL_AREA_STYLE ('',( #46 ) ) ;
#142 = MANIFOLD_SOLID_BREP ( 'ºÐÇÒ2[1]', #101 ) ;
#143 = PRESENTATION_STYLE_ASSIGNMENT (( #129 ) ) ;
#144 = DIRECTION ( 'NONE',  ( 0.0000000000000000000, 0.0000000000000000000, -1.000000000000000000 ) ) ;
#145 = CARTESIAN_POINT ( 'NONE',  ( -3.429011037612589769E-16, 5.600000000000000533, 0.0000000000000000000 ) ) ;
#146 = SURFACE_STYLE_USAGE ( .BOTH. , #128 ) ;
#147 =( NAMED_UNIT ( * ) PLANE_ANGLE_UNIT ( ) SI_UNIT ( $, .RADIAN. ) );
#148 = DIRECTION ( 'NONE',  ( 1.000000000000000000, 0.0000000000000000000, 0.0000000000000000000 ) ) ;
#149 = STYLED_ITEM ( 'NONE', ( #143 ), #181 ) ;
#150 =( NAMED_UNIT ( * ) SI_UNIT ( $, .STERADIAN. ) SOLID_ANGLE_UNIT ( ) );
#151 = COLOUR_RGB ( '',0.7921568627450980005, 0.8196078431372548767, 0.9333333333333333481 ) ;
#152 = ORIENTED_EDGE ( 'NONE', *, *, #188, .T. ) ;
#153 = ADVANCED_FACE ( 'NONE', ( #115 ), #159, .F. ) ;
#154 = AXIS2_PLACEMENT_3D ( 'NONE', #174, #92, #190 ) ;
#155 = PRESENTATION_LAYER_ASSIGNMENT (  '', '', ( #167 ) ) ;
#156 = SURFACE_STYLE_USAGE ( .BOTH. , #26 ) ;
#157 = DIRECTION ( 'NONE',  ( 0.0000000000000000000, 0.0000000000000000000, -1.000000000000000000 ) ) ;
#158 = UNCERTAINTY_MEASURE_WITH_UNIT (LENGTH_MEASURE( 1.000000000000000082E-05 ), #165, 'distance_accuracy_value', 'NONE');
#159 = PLANE ( 'NONE',  #204 ) ;
#160 =( NAMED_UNIT ( * ) PLANE_ANGLE_UNIT ( ) SI_UNIT ( $, .RADIAN. ) );
#161 = PRODUCT_DEFINITION_SHAPE ( 'NONE', 'NONE',  #34 ) ;
#162 =( NAMED_UNIT ( * ) SI_UNIT ( $, .STERADIAN. ) SOLID_ANGLE_UNIT ( ) );
#163 = CARTESIAN_POINT ( 'NONE',  ( 139.6804040507106208, 0.0000000000000000000, 5.600000000000017408 ) ) ;
#164 = MECHANICAL_DESIGN_GEOMETRIC_PRESENTATION_REPRESENTATION (  '', ( #149 ), #17 ) ;
#165 =( LENGTH_UNIT ( ) NAMED_UNIT ( * ) SI_UNIT ( .MILLI., .METRE. ) );
#166 = ADVANCED_FACE ( 'NONE', ( #28, #134 ), #75, .T. ) ;
#167 = STYLED_ITEM ( 'NONE', ( #22 ), #123 ) ;
#168 = AXIS2_PLACEMENT_3D ( 'NONE', #81, #194, #207 ) ;
#169 = FACE_BOUND ( 'NONE', #121, .T. ) ;
#170 = SURFACE_STYLE_FILL_AREA ( #132 ) ;
#171 = PRESENTATION_LAYER_ASSIGNMENT (  '', '', ( #149 ) ) ;
#172 = CARTESIAN_POINT ( 'NONE',  ( -858.0000000000000000, 0.0000000000000000000, 0.0000000000000000000 ) ) ;
#173 =( NAMED_UNIT ( * ) PLANE_ANGLE_UNIT ( ) SI_UNIT ( $, .RADIAN. ) );
#174 = CARTESIAN_POINT ( 'NONE',  ( 47.99999999999998579, 0.0000000000000000000, 0.0000000000000000000 ) ) ;
#175 = CARTESIAN_POINT ( 'NONE',  ( -3.429011037612589769E-16, 0.0000000000000000000, 0.0000000000000000000 ) ) ;
#176 = ORIENTED_EDGE ( 'NONE', *, *, #112, .F. ) ;
#177 = DIRECTION ( 'NONE',  ( 1.000000000000000000, 0.0000000000000000000, 0.0000000000000000000 ) ) ;
#178 = AXIS2_PLACEMENT_3D ( 'NONE', #172, #77, #108 ) ;
#179 = CARTESIAN_POINT ( 'NONE',  ( 47.99999999999998579, 0.0000000000000000000, -5.600000000000009415 ) ) ;
#180 = MECHANICAL_DESIGN_GEOMETRIC_PRESENTATION_REPRESENTATION (  '', ( #126 ), #136 ) ;
#181 = MANIFOLD_SOLID_BREP ( 'ºÐÇÒ2[2]', #55 ) ;
#182 = EDGE_LOOP ( 'NONE', ( #39 ) ) ;
#183 = AXIS2_PLACEMENT_3D ( 'NONE', #192, #91, #205 ) ;
#184 = ORIENTED_EDGE ( 'NONE', *, *, #100, .T. ) ;
#185 = ORIENTED_EDGE ( 'NONE', *, *, #90, .T. ) ;
#186 = AXIS2_PLACEMENT_3D ( 'NONE', #209, #111, #84 ) ;
#187 = CARTESIAN_POINT ( 'NONE',  ( 0.0000000000000000000, 0.0000000000000000000, 0.0000000000000000000 ) ) ;
#188 = EDGE_CURVE ( 'NONE', #139, #139, #42, .T. ) ;
#189 = EDGE_LOOP ( 'NONE', ( #184 ) ) ;
#190 = DIRECTION ( 'NONE',  ( 0.0000000000000000000, 0.0000000000000000000, -1.000000000000000000 ) ) ;
#191 = MECHANICAL_DESIGN_GEOMETRIC_PRESENTATION_REPRESENTATION (  '', ( #167 ), #36 ) ;
#192 = CARTESIAN_POINT ( 'NONE',  ( 47.99999999999998579, 0.0000000000000000000, 0.0000000000000000000 ) ) ;
#193 =( NAMED_UNIT ( * ) SI_UNIT ( $, .STERADIAN. ) SOLID_ANGLE_UNIT ( ) );
#194 = DIRECTION ( 'NONE',  ( -1.000000000000000000, -0.0000000000000000000, -0.0000000000000000000 ) ) ;
#195 = SURFACE_SIDE_STYLE ('',( #93 ) ) ;
#196 = STYLED_ITEM ( 'NONE', ( #40 ), #142 ) ;
#197 = DIRECTION ( 'NONE',  ( 0.0000000000000000000, 0.0000000000000000000, -1.000000000000000000 ) ) ;
#198 = CARTESIAN_POINT ( 'NONE',  ( -3.429011037612589769E-16, 0.0000000000000000000, -4.479999999999997762 ) ) ;
#199 = AXIS2_PLACEMENT_3D ( 'NONE', #35, #148, #51 ) ;
#200 = DIRECTION ( 'NONE',  ( 1.000000000000000000, 0.0000000000000000000, 0.0000000000000000000 ) ) ;
#201 = UNCERTAINTY_MEASURE_WITH_UNIT (LENGTH_MEASURE( 1.000000000000000082E-05 ), #32, 'distance_accuracy_value', 'NONE');
#202 = PRODUCT_RELATED_PRODUCT_CATEGORY ( 'part', '', ( #87 ) ) ;
#203 = AXIS2_PLACEMENT_3D ( 'NONE', #125, #29, #144 ) ;
#204 = AXIS2_PLACEMENT_3D ( 'NONE', #145, #177, #197 ) ;
#205 = DIRECTION ( 'NONE',  ( 0.0000000000000000000, 0.0000000000000000000, -1.000000000000000000 ) ) ;
#206 = FILL_AREA_STYLE ('',( #95 ) ) ;
#207 = DIRECTION ( 'NONE',  ( 0.0000000000000000000, 0.0000000000000000000, -1.000000000000000000 ) ) ;
#208 = SURFACE_STYLE_USAGE ( .BOTH. , #195 ) ;
#209 = CARTESIAN_POINT ( 'NONE',  ( 0.0000000000000000000, 0.0000000000000000000, 0.0000000000000000000 ) ) ;
#210 = FILL_AREA_STYLE_COLOUR ( '', #151 ) ;
#211 = AXIS2_PLACEMENT_3D ( 'NONE', #31, #86, #200 ) ;
#212 = APPLICATION_CONTEXT ( 'automotive_design' ) ;
#213 = PRESENTATION_LAYER_ASSIGNMENT (  '', '', ( #196 ) ) ;
ENDSEC;
END-ISO-10303-21;
