ISO-10303-21;
HEADER;
FILE_DESCRIPTION (( 'STEP AP203' ),
    '1' );
FILE_NAME ('03-2068.STEP',
    '2023-05-19T01:52:01',
    ( 'USER' ),
    ( 'Hewlett-Packard Company' ),
    'SwSTEP 2.0',
    'SolidWorks 2014',
    '' );
FILE_SCHEMA (( 'CONFIG_CONTROL_DESIGN' ));
ENDSEC;

DATA;
#1 = APPLICATION_PROTOCOL_DEFINITION ( 'international standard', 'config_control_design', 1994, #22 ) ;
#2 = CIRCLE ( 'NONE', #146, 12.40000000000000200 ) ;
#3 = COORDINATED_UNIVERSAL_TIME_OFFSET ( 9, 0, .AHEAD. ) ;
#4 = APPROVAL_STATUS ( 'not_yet_approved' ) ;
#5 = AXIS2_PLACEMENT_3D ( 'NONE', #136, #308, #161 ) ;
#6 = EDGE_LOOP ( 'NONE', ( #276, #182, #99, #152 ) ) ;
#7 = FACE_OUTER_BOUND ( 'NONE', #166, .T. ) ;
#8 = DATE_AND_TIME ( #68, #131 ) ;
#9 = EDGE_CURVE ( 'NONE', #197, #270, #300, .T. ) ;
#10 = VERTEX_POINT ( 'NONE', #306 ) ;
#11 = CC_DESIGN_APPROVAL ( #309, ( #294 ) ) ;
#12 = VECTOR ( 'NONE', #261, 1000.000000000000100 ) ;
#13 = PERSON_AND_ORGANIZATION ( #217, #287 ) ;
#14 = DIRECTION ( 'NONE',  ( 0.0000000000000000000, 0.0000000000000000000, -1.000000000000000000 ) ) ;
#15 = CARTESIAN_POINT ( 'NONE',  ( 1.000000000000000400, 6.829619984160664200E-017, 0.0000000000000000000 ) ) ;
#16 = AXIS2_PLACEMENT_3D ( 'NONE', #39, #206, #60 ) ;
#17 = ADVANCED_FACE ( 'NONE', ( #51 ), #280, .F. ) ;
#18 = ORIENTED_EDGE ( 'NONE', *, *, #256, .T. ) ;
#19 = CYLINDRICAL_SURFACE ( 'NONE', #50, 12.70000000000000100 ) ;
#20 = ADVANCED_BREP_SHAPE_REPRESENTATION ( '03-2068', ( #188, #74, #263 ), #196 ) ;
#21 = PERSON_AND_ORGANIZATION ( #217, #287 ) ;
#22 = APPLICATION_CONTEXT ( 'configuration controlled 3d designs of mechanical parts and assemblies' ) ;
#23 = EDGE_CURVE ( 'NONE', #41, #10, #112, .T. ) ;
#24 = PERSON_AND_ORGANIZATION_ROLE ( 'creator' ) ;
#25 = VERTEX_POINT ( 'NONE', #106 ) ;
#26 = CC_DESIGN_PERSON_AND_ORGANIZATION_ASSIGNMENT ( #21, #292, ( #294 ) ) ;
#27 = ORIENTED_EDGE ( 'NONE', *, *, #37, .F. ) ;
#28 = ORIENTED_EDGE ( 'NONE', *, *, #191, .F. ) ;
#29 = CIRCLE ( 'NONE', #281, 12.69999999999999900 ) ;
#30 = COORDINATED_UNIVERSAL_TIME_OFFSET ( 9, 0, .AHEAD. ) ;
#31 = ADVANCED_FACE ( 'NONE', ( #240 ), #230, .T. ) ;
#32 = ORIENTED_EDGE ( 'NONE', *, *, #100, .T. ) ;
#33 = FACE_OUTER_BOUND ( 'NONE', #6, .T. ) ;
#34 = SHAPE_DEFINITION_REPRESENTATION ( #299, #20 ) ;
#35 = DIRECTION ( 'NONE',  ( 0.0000000000000000000, 0.0000000000000000000, 1.000000000000000000 ) ) ;
#36 = ORIENTED_EDGE ( 'NONE', *, *, #303, .F. ) ;
#37 = EDGE_CURVE ( 'NONE', #227, #10, #45, .T. ) ;
#38 = DIRECTION ( 'NONE',  ( -0.0000000000000000000, 0.0000000000000000000, 1.000000000000000000 ) ) ;
#39 = CARTESIAN_POINT ( 'NONE',  ( 0.9999999999999976700, 12.69999999999999900, 0.0000000000000000000 ) ) ;
#40 = PLANE ( 'NONE',  #61 ) ;
#41 = VERTEX_POINT ( 'NONE', #110 ) ;
#42 = CC_DESIGN_DATE_AND_TIME_ASSIGNMENT ( #76, #144, ( #294 ) ) ;
#43 = CARTESIAN_POINT ( 'NONE',  ( 51.79999999999999000, 0.0000000000000000000, 12.70000000000000800 ) ) ;
#44 = DIRECTION ( 'NONE',  ( 0.0000000000000000000, 0.0000000000000000000, 1.000000000000000000 ) ) ;
#45 = LINE ( 'NONE', #237, #169 ) ;
#46 = ORIENTED_EDGE ( 'NONE', *, *, #244, .T. ) ;
#47 = DIRECTION ( 'NONE',  ( 1.000000000000000000, 0.0000000000000000000, 0.0000000000000000000 ) ) ;
#48 = DATE_AND_TIME ( #105, #173 ) ;
#49 = SECURITY_CLASSIFICATION_LEVEL ( 'unclassified' ) ;
#50 = AXIS2_PLACEMENT_3D ( 'NONE', #184, #233, #107 ) ;
#51 = FACE_OUTER_BOUND ( 'NONE', #291, .T. ) ;
#52 = EDGE_CURVE ( 'NONE', #254, #227, #295, .T. ) ;
#53 = PERSON_AND_ORGANIZATION ( #217, #287 ) ;
#54 = ADVANCED_FACE ( 'NONE', ( #163 ), #158, .F. ) ;
#55 = ORIENTED_EDGE ( 'NONE', *, *, #70, .T. ) ;
#56 = PRODUCT_DEFINITION_FORMATION_WITH_SPECIFIED_SOURCE ( 'ANY', '', #242, .NOT_KNOWN. ) ;
#57 = EDGE_LOOP ( 'NONE', ( #229, #208, #120, #36 ) ) ;
#58 = PERSON_AND_ORGANIZATION ( #217, #287 ) ;
#59 = DIRECTION ( 'NONE',  ( 0.0000000000000000000, 0.0000000000000000000, 1.000000000000000000 ) ) ;
#60 = DIRECTION ( 'NONE',  ( -1.289491750039661500E-016, 1.000000000000000000, 0.0000000000000000000 ) ) ;
#61 = AXIS2_PLACEMENT_3D ( 'NONE', #181, #209, #62 ) ;
#62 = DIRECTION ( 'NONE',  ( 1.289491750039661500E-016, -1.000000000000000000, 0.0000000000000000000 ) ) ;
#63 = ORIENTED_EDGE ( 'NONE', *, *, #290, .T. ) ;
#64 = DIRECTION ( 'NONE',  ( 1.000000000000000000, 1.289491750039661300E-016, -0.0000000000000000000 ) ) ;
#65 = DIRECTION ( 'NONE',  ( -1.000000000000000000, -0.0000000000000000000, -0.0000000000000000000 ) ) ;
#66 = CARTESIAN_POINT ( 'NONE',  ( 0.9999999999999986700, -1.802853322782538100E-031, 0.0000000000000000000 ) ) ;
#67 = CIRCLE ( 'NONE', #109, 12.69999999999999900 ) ;
#68 = CALENDAR_DATE ( 2023, 19, 5 ) ;
#69 = PERSON_AND_ORGANIZATION_ROLE ( 'design_owner' ) ;
#70 = EDGE_CURVE ( 'NONE', #254, #41, #98, .T. ) ;
#71 = DATE_TIME_ROLE ( 'classification_date' ) ;
#72 = CLOSED_SHELL ( 'NONE', ( #77, #151, #174, #125, #275, #298 ) ) ;
#73 = APPROVAL ( #4, 'UNSPECIFIED' ) ;
#74 = MANIFOLD_SOLID_BREP ( 'È¸Àü4', #72 ) ;
#75 = FACE_OUTER_BOUND ( 'NONE', #57, .T. ) ;
#76 = DATE_AND_TIME ( #143, #204 ) ;
#77 = ADVANCED_FACE ( 'NONE', ( #33 ), #216, .T. ) ;
#78 = AXIS2_PLACEMENT_3D ( 'NONE', #211, #64, #238 ) ;
#79 = ORIENTED_EDGE ( 'NONE', *, *, #52, .F. ) ;
#80 = CIRCLE ( 'NONE', #5, 12.40000000000000200 ) ;
#81 = APPROVAL_DATE_TIME ( #149, #309 ) ;
#82 = EDGE_CURVE ( 'NONE', #227, #254, #278, .T. ) ;
#83 = DIRECTION ( 'NONE',  ( -1.000000000000000000, -0.0000000000000000000, -0.0000000000000000000 ) ) ;
#84 = CARTESIAN_POINT ( 'NONE',  ( -62.19999999999998900, -12.70000000000001200, 1.555301434917138800E-015 ) ) ;
#85 = ORIENTED_EDGE ( 'NONE', *, *, #171, .F. ) ;
#86 = CARTESIAN_POINT ( 'NONE',  ( -62.19999999999998900, -12.70000000000001200, 1.555301434917139400E-015 ) ) ;
#87 = CARTESIAN_POINT ( 'NONE',  ( 51.79999999999999000, 1.555301434917139600E-015, -12.70000000000000800 ) ) ;
#88 = CARTESIAN_POINT ( 'NONE',  ( 1.000000000000000400, -12.69999999999999900, 1.555301434917138600E-015 ) ) ;
#89 = CC_DESIGN_APPROVAL ( #73, ( #56 ) ) ;
#90 = CARTESIAN_POINT ( 'NONE',  ( 0.9999999999999983300, 12.70000000000000100, 0.0000000000000000000 ) ) ;
#91 = CIRCLE ( 'NONE', #78, 12.70000000000000300 ) ;
#92 = APPROVAL_PERSON_ORGANIZATION ( #155, #309, #117 ) ;
#93 = CARTESIAN_POINT ( 'NONE',  ( -62.19999999999998900, -8.149587860250659300E-015, 0.0000000000000000000 ) ) ;
#94 = DIRECTION ( 'NONE',  ( -1.365923996832131600E-016, 1.000000000000000000, 0.0000000000000000000 ) ) ;
#95 = APPLICATION_PROTOCOL_DEFINITION ( 'international standard', 'config_control_design', 1994, #245 ) ;
#96 = APPROVAL_ROLE ( '' ) ;
#97 = AXIS2_PLACEMENT_3D ( 'NONE', #93, #214, #265 ) ;
#98 = LINE ( 'NONE', #302, #103 ) ;
#99 = ORIENTED_EDGE ( 'NONE', *, *, #205, .F. ) ;
#100 = EDGE_CURVE ( 'NONE', #10, #41, #29, .T. ) ;
#101 = ORIENTED_EDGE ( 'NONE', *, *, #9, .F. ) ;
#102 = CC_DESIGN_PERSON_AND_ORGANIZATION_ASSIGNMENT ( #193, #24, ( #56 ) ) ;
#103 = VECTOR ( 'NONE', #156, 1000.000000000000000 ) ;
#104 = VERTEX_POINT ( 'NONE', #88 ) ;
#105 = CALENDAR_DATE ( 2023, 19, 5 ) ;
#106 = CARTESIAN_POINT ( 'NONE',  ( -62.50000000000000000, 12.39999999999999300, 0.0000000000000000000 ) ) ;
#107 = DIRECTION ( 'NONE',  ( -1.365923996832131400E-016, 1.000000000000000000, 0.0000000000000000000 ) ) ;
#108 = DIRECTION ( 'NONE',  ( 0.0000000000000000000, 0.0000000000000000000, 1.000000000000000000 ) ) ;
#109 = AXIS2_PLACEMENT_3D ( 'NONE', #113, #285, #140 ) ;
#110 = CARTESIAN_POINT ( 'NONE',  ( 1.000000000000000000, 0.0000000000000000000, 12.69999999999999900 ) ) ;
#111 = CARTESIAN_POINT ( 'NONE',  ( 1.000000000000001800, -12.70000000000000100, 1.555301434917138600E-015 ) ) ;
#112 = CIRCLE ( 'NONE', #150, 12.69999999999999900 ) ;
#113 = CARTESIAN_POINT ( 'NONE',  ( 0.9999999999999986700, -1.802853322782538100E-031, 0.0000000000000000000 ) ) ;
#114 = CARTESIAN_POINT ( 'NONE',  ( -62.50000000000000000, -8.188272612751849300E-015, 0.0000000000000000000 ) ) ;
#115 =( NAMED_UNIT ( * ) PLANE_ANGLE_UNIT ( ) SI_UNIT ( $, .RADIAN. ) );
#116 = DATE_AND_TIME ( #179, #251 ) ;
#117 = APPROVAL_ROLE ( '' ) ;
#118 = AXIS2_PLACEMENT_3D ( 'NONE', #159, #132, #207 ) ;
#119 = DESIGN_CONTEXT ( 'detailed design', #245, 'design' ) ;
#120 = ORIENTED_EDGE ( 'NONE', *, *, #274, .T. ) ;
#121 = CC_DESIGN_PERSON_AND_ORGANIZATION_ASSIGNMENT ( #124, #195, ( #56 ) ) ;
#122 = EDGE_LOOP ( 'NONE', ( #175, #172, #255, #264 ) ) ;
#123 = VECTOR ( 'NONE', #164, 1000.000000000000000 ) ;
#124 = PERSON_AND_ORGANIZATION ( #217, #287 ) ;
#125 = ADVANCED_FACE ( 'NONE', ( #154 ), #215, .T. ) ;
#126 = AXIS2_PLACEMENT_3D ( 'NONE', #162, #137, #284 ) ;
#127 = ORIENTED_EDGE ( 'NONE', *, *, #205, .T. ) ;
#128 = UNCERTAINTY_MEASURE_WITH_UNIT (LENGTH_MEASURE( 1.000000000000000100E-005 ), #219, 'distance_accuracy_value', 'NONE');
#129 = VECTOR ( 'NONE', #311, 1000.000000000000000 ) ;
#130 = DIRECTION ( 'NONE',  ( 0.0000000000000000000, 1.000000000000000000, 0.0000000000000000000 ) ) ;
#131 = LOCAL_TIME ( 10, 52, 1.000000000000000000, #199 ) ;
#132 = DIRECTION ( 'NONE',  ( 1.000000000000000000, 1.289491750039661300E-016, -0.0000000000000000000 ) ) ;
#133 = CARTESIAN_POINT ( 'NONE',  ( 0.9999999999999970000, 12.69999999999999900, 0.0000000000000000000 ) ) ;
#134 = CARTESIAN_POINT ( 'NONE',  ( 1.000000000000000000, 0.0000000000000000000, 0.0000000000000000000 ) ) ;
#135 = ORIENTED_EDGE ( 'NONE', *, *, #274, .F. ) ;
#136 = CARTESIAN_POINT ( 'NONE',  ( -62.50000000000000000, -8.188272612751849300E-015, 0.0000000000000000000 ) ) ;
#137 = DIRECTION ( 'NONE',  ( -1.000000000000000000, -0.0000000000000000000, -0.0000000000000000000 ) ) ;
#138 = CARTESIAN_POINT ( 'NONE',  ( 1.000000000000000000, 0.0000000000000000000, 0.0000000000000000000 ) ) ;
#139 = SECURITY_CLASSIFICATION ( '', '', #49 ) ;
#140 = DIRECTION ( 'NONE',  ( -1.365923996832131600E-016, 1.000000000000000000, 0.0000000000000000000 ) ) ;
#141 = DIRECTION ( 'NONE',  ( 0.0000000000000000000, 1.000000000000000000, 0.0000000000000000000 ) ) ;
#142 = FACE_OUTER_BOUND ( 'NONE', #301, .T. ) ;
#143 = CALENDAR_DATE ( 2023, 19, 5 ) ;
#144 = DATE_TIME_ROLE ( 'creation_date' ) ;
#145 = ORIENTED_EDGE ( 'NONE', *, *, #82, .T. ) ;
#146 = AXIS2_PLACEMENT_3D ( 'NONE', #114, #288, #141 ) ;
#147 = EDGE_LOOP ( 'NONE', ( #18, #249 ) ) ;
#148 = FACE_OUTER_BOUND ( 'NONE', #262, .T. ) ;
#149 = DATE_AND_TIME ( #218, #279 ) ;
#150 = AXIS2_PLACEMENT_3D ( 'NONE', #134, #307, #59 ) ;
#151 = ADVANCED_FACE ( 'NONE', ( #148 ), #19, .T. ) ;
#152 = ORIENTED_EDGE ( 'NONE', *, *, #226, .F. ) ;
#153 = CC_DESIGN_PERSON_AND_ORGANIZATION_ASSIGNMENT ( #58, #221, ( #139 ) ) ;
#154 = FACE_OUTER_BOUND ( 'NONE', #147, .T. ) ;
#155 = PERSON_AND_ORGANIZATION ( #217, #287 ) ;
#156 = DIRECTION ( 'NONE',  ( -1.000000000000000000, -0.0000000000000000000, -0.0000000000000000000 ) ) ;
#157 = VERTEX_POINT ( 'NONE', #133 ) ;
#158 = PLANE ( 'NONE',  #252 ) ;
#159 = CARTESIAN_POINT ( 'NONE',  ( -62.19999999999998900, -8.149587860250659300E-015, 0.0000000000000000000 ) ) ;
#160 = AXIS2_PLACEMENT_3D ( 'NONE', #183, #313, #186 ) ;
#161 = DIRECTION ( 'NONE',  ( 0.0000000000000000000, 1.000000000000000000, 0.0000000000000000000 ) ) ;
#162 = CARTESIAN_POINT ( 'NONE',  ( 0.0000000000000000000, 0.0000000000000000000, 0.0000000000000000000 ) ) ;
#163 = FACE_OUTER_BOUND ( 'NONE', #189, .T. ) ;
#164 = DIRECTION ( 'NONE',  ( 1.000000000000000000, 1.289491750039661500E-016, -0.0000000000000000000 ) ) ;
#165 = CARTESIAN_POINT ( 'NONE',  ( 51.79999999999999000, 0.0000000000000000000, 0.0000000000000000000 ) ) ;
#166 = EDGE_LOOP ( 'NONE', ( #85, #63, #296, #101 ) ) ;
#167 = APPROVAL_ROLE ( '' ) ;
#168 = AXIS2_PLACEMENT_3D ( 'NONE', #210, #180, #38 ) ;
#169 = VECTOR ( 'NONE', #83, 1000.000000000000000 ) ;
#170 = CC_DESIGN_DATE_AND_TIME_ASSIGNMENT ( #116, #71, ( #139 ) ) ;
#171 = EDGE_CURVE ( 'NONE', #232, #197, #224, .T. ) ;
#172 = ORIENTED_EDGE ( 'NONE', *, *, #37, .T. ) ;
#173 = LOCAL_TIME ( 10, 52, 1.000000000000000000, #247 ) ;
#174 = ADVANCED_FACE ( 'NONE', ( #286 ), #40, .T. ) ;
#175 = ORIENTED_EDGE ( 'NONE', *, *, #52, .T. ) ;
#176 = AXIS2_PLACEMENT_3D ( 'NONE', #66, #243, #94 ) ;
#177 = EDGE_LOOP ( 'NONE', ( #28, #228 ) ) ;
#178 = DIRECTION ( 'NONE',  ( 1.000000000000000000, 0.0000000000000000000, 0.0000000000000000000 ) ) ;
#179 = CALENDAR_DATE ( 2023, 19, 5 ) ;
#180 = DIRECTION ( 'NONE',  ( -1.000000000000000000, 0.0000000000000000000, -0.0000000000000000000 ) ) ;
#181 = CARTESIAN_POINT ( 'NONE',  ( -62.50000000000000000, -8.188272612751849300E-015, 0.0000000000000000000 ) ) ;
#182 = ORIENTED_EDGE ( 'NONE', *, *, #171, .T. ) ;
#183 = CARTESIAN_POINT ( 'NONE',  ( 1.000000000000000000, 0.0000000000000000000, 0.0000000000000000000 ) ) ;
#184 = CARTESIAN_POINT ( 'NONE',  ( 1.000000000000000000, 0.0000000000000000000, 0.0000000000000000000 ) ) ;
#185 = APPROVAL ( #248, 'UNSPECIFIED' ) ;
#186 = DIRECTION ( 'NONE',  ( -1.365923996832131400E-016, 1.000000000000000000, 0.0000000000000000000 ) ) ;
#187 = CARTESIAN_POINT ( 'NONE',  ( -62.19999999999998900, -8.149587860250659300E-015, 0.0000000000000000000 ) ) ;
#188 = MANIFOLD_SOLID_BREP ( 'È¸Àü3', #271 ) ;
#189 = EDGE_LOOP ( 'NONE', ( #212, #32 ) ) ;
#190 = CARTESIAN_POINT ( 'NONE',  ( 0.0000000000000000000, 0.0000000000000000000, 0.0000000000000000000 ) ) ;
#191 = EDGE_CURVE ( 'NONE', #25, #232, #80, .T. ) ;
#192 = LINE ( 'NONE', #90, #123 ) ;
#193 = PERSON_AND_ORGANIZATION ( #217, #287 ) ;
#194 = DIRECTION ( 'NONE',  ( 0.0000000000000000000, 0.0000000000000000000, 1.000000000000000000 ) ) ;
#195 = PERSON_AND_ORGANIZATION_ROLE ( 'design_supplier' ) ;
#196 =( GEOMETRIC_REPRESENTATION_CONTEXT ( 3 ) GLOBAL_UNCERTAINTY_ASSIGNED_CONTEXT ( ( #128 ) ) GLOBAL_UNIT_ASSIGNED_CONTEXT ( ( #219, #115, #289 ) ) REPRESENTATION_CONTEXT ( 'NONE', 'WORKASPACE' ) );
#197 = VERTEX_POINT ( 'NONE', #86 ) ;
#198 = LINE ( 'NONE', #111, #129 ) ;
#199 = COORDINATED_UNIVERSAL_TIME_OFFSET ( 9, 0, .AHEAD. ) ;
#200 = AXIS2_PLACEMENT_3D ( 'NONE', #165, #266, #35 ) ;
#201 = ORIENTED_EDGE ( 'NONE', *, *, #100, .F. ) ;
#202 = CC_DESIGN_APPROVAL ( #185, ( #139 ) ) ;
#203 = LINE ( 'NONE', #283, #12 ) ;
#204 = LOCAL_TIME ( 10, 52, 1.000000000000000000, #273 ) ;
#205 = EDGE_CURVE ( 'NONE', #270, #197, #91, .T. ) ;
#206 = DIRECTION ( 'NONE',  ( 1.000000000000000000, 1.289491750039661500E-016, -0.0000000000000000000 ) ) ;
#207 = DIRECTION ( 'NONE',  ( 0.0000000000000000000, 1.000000000000000000, 0.0000000000000000000 ) ) ;
#208 = ORIENTED_EDGE ( 'NONE', *, *, #9, .T. ) ;
#209 = DIRECTION ( 'NONE',  ( -1.000000000000000000, -1.289491750039661500E-016, 0.0000000000000000000 ) ) ;
#210 = CARTESIAN_POINT ( 'NONE',  ( 51.79999999999999700, 2.830194521436176500E-014, 0.0000000000000000000 ) ) ;
#211 = CARTESIAN_POINT ( 'NONE',  ( -62.19999999999998900, -8.149587860250659300E-015, 0.0000000000000000000 ) ) ;
#212 = ORIENTED_EDGE ( 'NONE', *, *, #23, .T. ) ;
#213 = CARTESIAN_POINT ( 'NONE',  ( -62.19999999999998900, 12.69999999999999400, 0.0000000000000000000 ) ) ;
#214 = DIRECTION ( 'NONE',  ( 1.000000000000000000, 1.289491750039661300E-016, -0.0000000000000000000 ) ) ;
#215 = PLANE ( 'NONE',  #16 ) ;
#216 = CONICAL_SURFACE ( 'NONE', #235, 12.70000000000000300, 0.7853981633974367300 ) ;
#217 = PERSON ( 'UNSPECIFIED', 'UNSPECIFIED', 'UNSPECIFIED', ('UNSPECIFIED'), ('UNSPECIFIED'), ('UNSPECIFIED') ) ;
#218 = CALENDAR_DATE ( 2023, 19, 5 ) ;
#219 =( LENGTH_UNIT ( ) NAMED_UNIT ( * ) SI_UNIT ( .MILLI., .METRE. ) );
#220 = MECHANICAL_CONTEXT ( 'NONE', #22, 'mechanical' ) ;
#221 = PERSON_AND_ORGANIZATION_ROLE ( 'classification_officer' ) ;
#222 = AXIS2_PLACEMENT_3D ( 'NONE', #234, #260, #108 ) ;
#223 = CC_DESIGN_SECURITY_CLASSIFICATION ( #139, ( #56 ) ) ;
#224 = LINE ( 'NONE', #84, #272 ) ;
#225 = PERSON_AND_ORGANIZATION ( #217, #287 ) ;
#226 = EDGE_CURVE ( 'NONE', #25, #270, #203, .T. ) ;
#227 = VERTEX_POINT ( 'NONE', #87 ) ;
#228 = ORIENTED_EDGE ( 'NONE', *, *, #290, .F. ) ;
#229 = ORIENTED_EDGE ( 'NONE', *, *, #244, .F. ) ;
#230 = CYLINDRICAL_SURFACE ( 'NONE', #222, 12.70000000000000300 ) ;
#231 = DIRECTION ( 'NONE',  ( 0.0000000000000000000, 0.0000000000000000000, 1.000000000000000000 ) ) ;
#232 = VERTEX_POINT ( 'NONE', #282 ) ;
#233 = DIRECTION ( 'NONE',  ( 1.000000000000000000, 1.289491750039661300E-016, -0.0000000000000000000 ) ) ;
#234 = CARTESIAN_POINT ( 'NONE',  ( 0.0000000000000000000, 0.0000000000000000000, 0.0000000000000000000 ) ) ;
#235 = AXIS2_PLACEMENT_3D ( 'NONE', #187, #259, #130 ) ;
#236 = DIRECTION ( 'NONE',  ( 0.7071067811865557900, -0.7071067811865392500, 8.659560562354833000E-017 ) ) ;
#237 = CARTESIAN_POINT ( 'NONE',  ( 0.0000000000000000000, 1.555301434917138800E-015, -12.70000000000000300 ) ) ;
#238 = DIRECTION ( 'NONE',  ( 0.0000000000000000000, 1.000000000000000000, 0.0000000000000000000 ) ) ;
#239 = CARTESIAN_POINT ( 'NONE',  ( 51.79999999999999000, 0.0000000000000000000, 0.0000000000000000000 ) ) ;
#240 = FACE_OUTER_BOUND ( 'NONE', #122, .T. ) ;
#241 = PRODUCT_RELATED_PRODUCT_CATEGORY ( 'detail', '', ( #242 ) ) ;
#242 = PRODUCT ( '03-2068', '03-2068', '', ( #220 ) ) ;
#243 = DIRECTION ( 'NONE',  ( 1.000000000000000000, 1.289491750039661300E-016, -0.0000000000000000000 ) ) ;
#244 = EDGE_CURVE ( 'NONE', #197, #104, #198, .T. ) ;
#245 = APPLICATION_CONTEXT ( 'configuration controlled 3d designs of mechanical parts and assemblies' ) ;
#246 = CONICAL_SURFACE ( 'NONE', #97, 12.70000000000000300, 0.7853981633974367300 ) ;
#247 = COORDINATED_UNIVERSAL_TIME_OFFSET ( 9, 0, .AHEAD. ) ;
#248 = APPROVAL_STATUS ( 'not_yet_approved' ) ;
#249 = ORIENTED_EDGE ( 'NONE', *, *, #303, .T. ) ;
#250 = CYLINDRICAL_SURFACE ( 'NONE', #160, 12.70000000000000100 ) ;
#251 = LOCAL_TIME ( 10, 52, 1.000000000000000000, #3 ) ;
#252 = AXIS2_PLACEMENT_3D ( 'NONE', #15, #178, #14 ) ;
#253 = ADVANCED_FACE ( 'NONE', ( #142 ), #257, .T. ) ;
#254 = VERTEX_POINT ( 'NONE', #43 ) ;
#255 = ORIENTED_EDGE ( 'NONE', *, *, #23, .F. ) ;
#256 = EDGE_CURVE ( 'NONE', #157, #104, #67, .T. ) ;
#257 = CYLINDRICAL_SURFACE ( 'NONE', #126, 12.70000000000000300 ) ;
#258 = APPROVAL_DATE_TIME ( #8, #73 ) ;
#259 = DIRECTION ( 'NONE',  ( 1.000000000000000000, 1.289491750039661300E-016, -0.0000000000000000000 ) ) ;
#260 = DIRECTION ( 'NONE',  ( -1.000000000000000000, -0.0000000000000000000, -0.0000000000000000000 ) ) ;
#261 = DIRECTION ( 'NONE',  ( 0.7071067811865555700, 0.7071067811865393600, 0.0000000000000000000 ) ) ;
#262 = EDGE_LOOP ( 'NONE', ( #127, #46, #293, #135 ) ) ;
#263 = AXIS2_PLACEMENT_3D ( 'NONE', #190, #194, #47 ) ;
#264 = ORIENTED_EDGE ( 'NONE', *, *, #70, .F. ) ;
#265 = DIRECTION ( 'NONE',  ( 0.0000000000000000000, 1.000000000000000000, 0.0000000000000000000 ) ) ;
#266 = DIRECTION ( 'NONE',  ( -1.000000000000000000, -0.0000000000000000000, -0.0000000000000000000 ) ) ;
#267 = APPROVAL_PERSON_ORGANIZATION ( #13, #73, #167 ) ;
#268 = APPROVAL_STATUS ( 'not_yet_approved' ) ;
#269 = AXIS2_PLACEMENT_3D ( 'NONE', #239, #65, #44 ) ;
#270 = VERTEX_POINT ( 'NONE', #213 ) ;
#271 = CLOSED_SHELL ( 'NONE', ( #31, #253, #54, #17 ) ) ;
#272 = VECTOR ( 'NONE', #236, 1000.000000000000000 ) ;
#273 = COORDINATED_UNIVERSAL_TIME_OFFSET ( 9, 0, .AHEAD. ) ;
#274 = EDGE_CURVE ( 'NONE', #270, #157, #192, .T. ) ;
#275 = ADVANCED_FACE ( 'NONE', ( #75 ), #250, .T. ) ;
#276 = ORIENTED_EDGE ( 'NONE', *, *, #191, .T. ) ;
#277 = CC_DESIGN_PERSON_AND_ORGANIZATION_ASSIGNMENT ( #225, #69, ( #242 ) ) ;
#278 = CIRCLE ( 'NONE', #269, 12.70000000000000800 ) ;
#279 = LOCAL_TIME ( 10, 52, 1.000000000000000000, #30 ) ;
#280 = PLANE ( 'NONE',  #168 ) ;
#281 = AXIS2_PLACEMENT_3D ( 'NONE', #138, #312, #231 ) ;
#282 = CARTESIAN_POINT ( 'NONE',  ( -62.50000000000000000, -12.40000000000000900, 1.536931732929928600E-015 ) ) ;
#283 = CARTESIAN_POINT ( 'NONE',  ( -62.19999999999998900, 12.69999999999999400, 0.0000000000000000000 ) ) ;
#284 = DIRECTION ( 'NONE',  ( 0.0000000000000000000, 0.0000000000000000000, 1.000000000000000000 ) ) ;
#285 = DIRECTION ( 'NONE',  ( 1.000000000000000000, 1.289491750039661300E-016, -0.0000000000000000000 ) ) ;
#286 = FACE_OUTER_BOUND ( 'NONE', #177, .T. ) ;
#287 = ORGANIZATION ( 'UNSPECIFIED', 'UNSPECIFIED', '' ) ;
#288 = DIRECTION ( 'NONE',  ( 1.000000000000000000, 1.289491750039661300E-016, -0.0000000000000000000 ) ) ;
#289 =( NAMED_UNIT ( * ) SI_UNIT ( $, .STERADIAN. ) SOLID_ANGLE_UNIT ( ) );
#290 = EDGE_CURVE ( 'NONE', #232, #25, #2, .T. ) ;
#291 = EDGE_LOOP ( 'NONE', ( #79, #310 ) ) ;
#292 = PERSON_AND_ORGANIZATION_ROLE ( 'creator' ) ;
#293 = ORIENTED_EDGE ( 'NONE', *, *, #256, .F. ) ;
#294 = PRODUCT_DEFINITION ( 'UNKNOWN', '', #56, #119 ) ;
#295 = CIRCLE ( 'NONE', #200, 12.70000000000000800 ) ;
#296 = ORIENTED_EDGE ( 'NONE', *, *, #226, .T. ) ;
#297 = APPROVAL_DATE_TIME ( #48, #185 ) ;
#298 = ADVANCED_FACE ( 'NONE', ( #7 ), #246, .T. ) ;
#299 = PRODUCT_DEFINITION_SHAPE ( 'NONE', 'NONE',  #294 ) ;
#300 = CIRCLE ( 'NONE', #118, 12.70000000000000300 ) ;
#301 = EDGE_LOOP ( 'NONE', ( #27, #145, #55, #201 ) ) ;
#302 = CARTESIAN_POINT ( 'NONE',  ( 0.0000000000000000000, 0.0000000000000000000, 12.70000000000000300 ) ) ;
#303 = EDGE_CURVE ( 'NONE', #104, #157, #304, .T. ) ;
#304 = CIRCLE ( 'NONE', #176, 12.69999999999999900 ) ;
#305 = APPROVAL_PERSON_ORGANIZATION ( #53, #185, #96 ) ;
#306 = CARTESIAN_POINT ( 'NONE',  ( 1.000000000000000000, 1.555301434917138600E-015, -12.69999999999999900 ) ) ;
#307 = DIRECTION ( 'NONE',  ( -1.000000000000000000, -0.0000000000000000000, -0.0000000000000000000 ) ) ;
#308 = DIRECTION ( 'NONE',  ( 1.000000000000000000, 1.289491750039661300E-016, -0.0000000000000000000 ) ) ;
#309 = APPROVAL ( #268, 'UNSPECIFIED' ) ;
#310 = ORIENTED_EDGE ( 'NONE', *, *, #82, .F. ) ;
#311 = DIRECTION ( 'NONE',  ( 1.000000000000000000, 1.289491750039661500E-016, -0.0000000000000000000 ) ) ;
#312 = DIRECTION ( 'NONE',  ( -1.000000000000000000, -0.0000000000000000000, -0.0000000000000000000 ) ) ;
#313 = DIRECTION ( 'NONE',  ( 1.000000000000000000, 1.289491750039661300E-016, -0.0000000000000000000 ) ) ;
ENDSEC;
END-ISO-10303-21;
