ISO-10303-21;
HEADER;
/* Generated by software containing ST-Developer
 * from STEP Tools, Inc. (www.steptools.com) 
 */

FILE_DESCRIPTION(
/* description */ (''),
/* implementation_level */ '2;1');

FILE_NAME(
/* name */ 'PL03-2850 v3.step',
/* time_stamp */ '2023-03-17T11:44:47-04:00',
/* author */ (''),
/* organization */ (''),
/* preprocessor_version */ 'ST-DEVELOPER v19.2',
/* originating_system */ 'Autodesk Translation Framework v11.17.0.187',

/* authorisation */ '');

FILE_SCHEMA (('AUTOMOTIVE_DESIGN { 1 0 10303 214 3 1 1 }'));
ENDSEC;

DATA;
#10=MECHANICAL_DESIGN_GEOMETRIC_PRESENTATION_REPRESENTATION('',(#13),#146);
#11=SHAPE_REPRESENTATION_RELATIONSHIP('SRR','None',#156,#12);
#12=ADVANCED_BREP_SHAPE_REPRESENTATION('',(#14),#145);
#13=STYLED_ITEM('',(#165),#14);
#14=MANIFOLD_SOLID_BREP('Body1',#75);
#15=PLANE('',#98);
#16=CYLINDRICAL_SURFACE('',#97,0.09375);
#17=LINE('',#133,#20);
#18=LINE('',#138,#21);
#19=LINE('',#141,#22);
#20=VECTOR('',#111,0.0732841417080257);
#21=VECTOR('',#116,0.08375);
#22=VECTOR('',#121,0.09375);
#23=CONICAL_SURFACE('',#91,0.0732841417080257,0.122173047639603);
#24=CONICAL_SURFACE('',#94,0.08375,0.785398163397451);
#25=FACE_OUTER_BOUND('',#30,.T.);
#26=FACE_OUTER_BOUND('',#31,.T.);
#27=FACE_OUTER_BOUND('',#32,.T.);
#28=FACE_OUTER_BOUND('',#33,.T.);
#29=FACE_OUTER_BOUND('',#34,.T.);
#30=EDGE_LOOP('',(#53));
#31=EDGE_LOOP('',(#54,#55,#56,#57,#58));
#32=EDGE_LOOP('',(#59,#60,#61,#62));
#33=EDGE_LOOP('',(#63,#64,#65,#66,#67));
#34=EDGE_LOOP('',(#68));
#35=CIRCLE('',#90,0.0465682846245708);
#36=CIRCLE('',#92,0.09375);
#37=CIRCLE('',#93,0.09375);
#38=CIRCLE('',#95,0.07375);
#39=CIRCLE('',#96,0.09375);
#40=VERTEX_POINT('',#126);
#41=VERTEX_POINT('',#129);
#42=VERTEX_POINT('',#130);
#43=VERTEX_POINT('',#135);
#44=VERTEX_POINT('',#137);
#45=EDGE_CURVE('',#40,#40,#35,.T.);
#46=EDGE_CURVE('',#41,#42,#36,.T.);
#47=EDGE_CURVE('',#42,#41,#37,.T.);
#48=EDGE_CURVE('',#42,#40,#17,.T.);
#49=EDGE_CURVE('',#43,#43,#38,.T.);
#50=EDGE_CURVE('',#43,#44,#18,.T.);
#51=EDGE_CURVE('',#44,#44,#39,.T.);
#52=EDGE_CURVE('',#44,#41,#19,.T.);
#53=ORIENTED_EDGE('',*,*,#45,.T.);
#54=ORIENTED_EDGE('',*,*,#46,.F.);
#55=ORIENTED_EDGE('',*,*,#47,.F.);
#56=ORIENTED_EDGE('',*,*,#48,.T.);
#57=ORIENTED_EDGE('',*,*,#45,.F.);
#58=ORIENTED_EDGE('',*,*,#48,.F.);
#59=ORIENTED_EDGE('',*,*,#49,.T.);
#60=ORIENTED_EDGE('',*,*,#50,.T.);
#61=ORIENTED_EDGE('',*,*,#51,.T.);
#62=ORIENTED_EDGE('',*,*,#50,.F.);
#63=ORIENTED_EDGE('',*,*,#51,.F.);
#64=ORIENTED_EDGE('',*,*,#52,.T.);
#65=ORIENTED_EDGE('',*,*,#46,.T.);
#66=ORIENTED_EDGE('',*,*,#47,.T.);
#67=ORIENTED_EDGE('',*,*,#52,.F.);
#68=ORIENTED_EDGE('',*,*,#49,.F.);
#69=SPHERICAL_SURFACE('',#89,0.0469);
#70=ADVANCED_FACE('',(#25),#69,.T.);
#71=ADVANCED_FACE('',(#26),#23,.T.);
#72=ADVANCED_FACE('',(#27),#24,.T.);
#73=ADVANCED_FACE('',(#28),#16,.T.);
#74=ADVANCED_FACE('',(#29),#15,.F.);
#75=CLOSED_SHELL('',(#70,#71,#72,#73,#74));
#76=DERIVED_UNIT_ELEMENT(#78,1.);
#77=DERIVED_UNIT_ELEMENT(#150,-3.);
#78=(
MASS_UNIT()
NAMED_UNIT(*)
SI_UNIT(.KILO.,.GRAM.)
);
#79=DERIVED_UNIT((#76,#77));
#80=MEASURE_REPRESENTATION_ITEM('density measure',
POSITIVE_RATIO_MEASURE(7850.),#79);
#81=PROPERTY_DEFINITION_REPRESENTATION(#86,#83);
#82=PROPERTY_DEFINITION_REPRESENTATION(#87,#84);
#83=REPRESENTATION('material name',(#85),#145);
#84=REPRESENTATION('density',(#80),#145);
#85=DESCRIPTIVE_REPRESENTATION_ITEM('Steel','Steel');
#86=PROPERTY_DEFINITION('material property','material name',#158);
#87=PROPERTY_DEFINITION('material property','density of part',#158);
#88=AXIS2_PLACEMENT_3D('placement',#124,#99,#100);
#89=AXIS2_PLACEMENT_3D('',#125,#101,#102);
#90=AXIS2_PLACEMENT_3D('',#127,#103,#104);
#91=AXIS2_PLACEMENT_3D('',#128,#105,#106);
#92=AXIS2_PLACEMENT_3D('',#131,#107,#108);
#93=AXIS2_PLACEMENT_3D('',#132,#109,#110);
#94=AXIS2_PLACEMENT_3D('',#134,#112,#113);
#95=AXIS2_PLACEMENT_3D('',#136,#114,#115);
#96=AXIS2_PLACEMENT_3D('',#139,#117,#118);
#97=AXIS2_PLACEMENT_3D('',#140,#119,#120);
#98=AXIS2_PLACEMENT_3D('',#142,#122,#123);
#99=DIRECTION('axis',(0.,0.,1.));
#100=DIRECTION('refdir',(1.,0.,0.));
#101=DIRECTION('center_axis',(6.12323399573677E-17,0.,1.));
#102=DIRECTION('ref_axis',(1.,0.,0.));
#103=DIRECTION('center_axis',(0.,1.,0.));
#104=DIRECTION('ref_axis',(1.,0.,0.));
#105=DIRECTION('center_axis',(0.,-1.,0.));
#106=DIRECTION('ref_axis',(0.,0.,1.));
#107=DIRECTION('center_axis',(0.,-1.,0.));
#108=DIRECTION('ref_axis',(1.,0.,0.));
#109=DIRECTION('center_axis',(0.,-1.,0.));
#110=DIRECTION('ref_axis',(1.,0.,0.));
#111=DIRECTION('',(1.49246901315303E-17,0.992546151641322,0.121869343405147));
#112=DIRECTION('center_axis',(0.,1.,0.));
#113=DIRECTION('ref_axis',(1.,0.,0.));
#114=DIRECTION('center_axis',(0.,1.,0.));
#115=DIRECTION('ref_axis',(1.,0.,0.));
#116=DIRECTION('',(-0.707106781186549,0.707106781186546,-8.65956056235496E-17));
#117=DIRECTION('center_axis',(0.,-1.,0.));
#118=DIRECTION('ref_axis',(1.,0.,0.));
#119=DIRECTION('center_axis',(0.,-1.,0.));
#120=DIRECTION('ref_axis',(1.,0.,0.));
#121=DIRECTION('',(0.,1.,0.));
#122=DIRECTION('center_axis',(0.,1.,0.));
#123=DIRECTION('ref_axis',(1.,0.,0.));
#124=CARTESIAN_POINT('',(0.,0.,0.));
#125=CARTESIAN_POINT('Origin',(0.,-0.0469,0.));
#126=CARTESIAN_POINT('',(-5.70297007072635E-18,-0.0413317985735999,-0.0465682846245708));
#127=CARTESIAN_POINT('Origin',(0.,-0.0413317985735999,0.));
#128=CARTESIAN_POINT('Origin',(0.,-0.258914993781516,0.));
#129=CARTESIAN_POINT('',(-0.09375,-0.425596033657191,-1.14810637420064E-17));
#130=CARTESIAN_POINT('',(-1.14810637420064E-17,-0.425596033657191,-0.09375));
#131=CARTESIAN_POINT('Origin',(0.,-0.425596033657191,0.));
#132=CARTESIAN_POINT('Origin',(0.,-0.425596033657191,0.));
#133=CARTESIAN_POINT('',(-8.97471895709947E-18,-0.258914993781516,-0.0732841417080257));
#134=CARTESIAN_POINT('Origin',(0.,-1.99,0.));
#135=CARTESIAN_POINT('',(-0.07375,-2.,9.03177014371173E-18));
#136=CARTESIAN_POINT('Origin',(0.,-2.,0.));
#137=CARTESIAN_POINT('',(-0.09375,-1.98,-1.14810637420064E-17));
#138=CARTESIAN_POINT('',(-0.08375,-1.99,-1.02564169428591E-17));
#139=CARTESIAN_POINT('Origin',(0.,-1.98,0.));
#140=CARTESIAN_POINT('Origin',(0.,0.,0.));
#141=CARTESIAN_POINT('',(-0.09375,0.,-1.14810637420064E-17));
#142=CARTESIAN_POINT('Origin',(0.,-2.,0.));
#143=UNCERTAINTY_MEASURE_WITH_UNIT(LENGTH_MEASURE(0.000393700787401575),
#148,'DISTANCE_ACCURACY_VALUE',
'Maximum model space distance between geometric entities at asserted c
onnectivities');
#144=UNCERTAINTY_MEASURE_WITH_UNIT(LENGTH_MEASURE(0.000393700787401575),
#148,'DISTANCE_ACCURACY_VALUE',
'Maximum model space distance between geometric entities at asserted c
onnectivities');
#145=(
GEOMETRIC_REPRESENTATION_CONTEXT(3)
GLOBAL_UNCERTAINTY_ASSIGNED_CONTEXT((#143))
GLOBAL_UNIT_ASSIGNED_CONTEXT((#148,#152,#153))
REPRESENTATION_CONTEXT('','3D')
);
#146=(
GEOMETRIC_REPRESENTATION_CONTEXT(3)
GLOBAL_UNCERTAINTY_ASSIGNED_CONTEXT((#144))
GLOBAL_UNIT_ASSIGNED_CONTEXT((#148,#152,#153))
REPRESENTATION_CONTEXT('','3D')
);
#147=DIMENSIONAL_EXPONENTS(1.,0.,0.,0.,0.,0.,0.);
#148=(
CONVERSION_BASED_UNIT('inch',#151)
LENGTH_UNIT()
NAMED_UNIT(#147)
);
#149=(
LENGTH_UNIT()
NAMED_UNIT(*)
SI_UNIT(.MILLI.,.METRE.)
);
#150=(
LENGTH_UNIT()
NAMED_UNIT(*)
SI_UNIT($,.METRE.)
);
#151=LENGTH_MEASURE_WITH_UNIT(LENGTH_MEASURE(25.4),#149);
#152=(
NAMED_UNIT(*)
PLANE_ANGLE_UNIT()
SI_UNIT($,.RADIAN.)
);
#153=(
NAMED_UNIT(*)
SI_UNIT($,.STERADIAN.)
SOLID_ANGLE_UNIT()
);
#154=SHAPE_DEFINITION_REPRESENTATION(#155,#156);
#155=PRODUCT_DEFINITION_SHAPE('',$,#158);
#156=SHAPE_REPRESENTATION('',(#88),#145);
#157=PRODUCT_DEFINITION_CONTEXT('part definition',#162,'design');
#158=PRODUCT_DEFINITION('PL03-2850','PL03-2850 v3',#159,#157);
#159=PRODUCT_DEFINITION_FORMATION('',$,#164);
#160=PRODUCT_RELATED_PRODUCT_CATEGORY('PL03-2850 v3','PL03-2850 v3',(#164));
#161=APPLICATION_PROTOCOL_DEFINITION('international standard',
'automotive_design',2009,#162);
#162=APPLICATION_CONTEXT(
'Core Data for Automotive Mechanical Design Process');
#163=PRODUCT_CONTEXT('part definition',#162,'mechanical');
#164=PRODUCT('PL03-2850','PL03-2850 v3',$,(#163));
#165=PRESENTATION_STYLE_ASSIGNMENT((#166));
#166=SURFACE_STYLE_USAGE(.BOTH.,#167);
#167=SURFACE_SIDE_STYLE('',(#168));
#168=SURFACE_STYLE_FILL_AREA(#169);
#169=FILL_AREA_STYLE('Steel - Satin',(#170));
#170=FILL_AREA_STYLE_COLOUR('Steel - Satin',#171);
#171=COLOUR_RGB('Steel - Satin',0.627450980392157,0.627450980392157,0.627450980392157);
ENDSEC;
END-ISO-10303-21;
