ISO-10303-21;
HEADER;
FILE_DESCRIPTION (( 'STEP AP203' ),
    '1' );
FILE_NAME ('03-3184.STEP',
    '2023-07-12T07:38:19',
    ( 'USER' ),
    ( 'Hewlett-Packard Company' ),
    'SwSTEP 2.0',
    'SolidWorks 2014',
    '' );
FILE_SCHEMA (( 'CONFIG_CONTROL_DESIGN' ));
ENDSEC;

DATA;
#1 = AXIS2_PLACEMENT_3D ( 'NONE', #6, #235, #327 ) ;
#2 = ORIENTED_EDGE ( 'NONE', *, *, #273, .T. ) ;
#3 = DIRECTION ( 'NONE',  ( 1.000000000000000000, 0.0000000000000000000, 0.0000000000000000000 ) ) ;
#4 = EDGE_CURVE ( 'NONE', #238, #228, #123, .T. ) ;
#5 = CYLINDRICAL_SURFACE ( 'NONE', #304, 4.000000000000003600 ) ;
#6 = CARTESIAN_POINT ( 'NONE',  ( 1.000000000000000000, 5.198687343350687000E-033, 0.0000000000000000000 ) ) ;
#7 = CIRCLE ( 'NONE', #366, 4.000000000000007100 ) ;
#8 = LOCAL_TIME ( 16, 38, 19.00000000000000000, #100 ) ;
#9 = EDGE_CURVE ( 'NONE', #66, #228, #287, .T. ) ;
#10 = CIRCLE ( 'NONE', #76, 5.000000000000000000 ) ;
#11 = PRODUCT_DEFINITION_FORMATION_WITH_SPECIFIED_SOURCE ( 'ANY', '', #200, .NOT_KNOWN. ) ;
#12 = ORIENTED_EDGE ( 'NONE', *, *, #42, .F. ) ;
#13 = DIRECTION ( 'NONE',  ( 0.7071067811865434600, 0.7071067811865516800, 0.0000000000000000000 ) ) ;
#14 = EDGE_CURVE ( 'NONE', #178, #61, #204, .T. ) ;
#15 = DIRECTION ( 'NONE',  ( 1.000000000000000000, 1.193131631831312900E-016, -0.0000000000000000000 ) ) ;
#16 = EDGE_CURVE ( 'NONE', #178, #66, #279, .T. ) ;
#17 = ORIENTED_EDGE ( 'NONE', *, *, #128, .F. ) ;
#18 = CARTESIAN_POINT ( 'NONE',  ( 1.000000000000000700, -4.999999999999999100, 6.123233995736765300E-016 ) ) ;
#19 = EDGE_CURVE ( 'NONE', #374, #333, #359, .T. ) ;
#20 = CARTESIAN_POINT ( 'NONE',  ( 1.000000000000000700, 4.898587196589415800E-016, -4.000000000000000000 ) ) ;
#21 = CARTESIAN_POINT ( 'NONE',  ( 0.0000000000000000000, 4.898587196589417800E-016, -4.000000000000003600 ) ) ;
#22 = AXIS2_PLACEMENT_3D ( 'NONE', #160, #278, #89 ) ;
#23 = CALENDAR_DATE ( 2023, 12, 7 ) ;
#24 =( NAMED_UNIT ( * ) PLANE_ANGLE_UNIT ( ) SI_UNIT ( $, .RADIAN. ) );
#25 = ADVANCED_FACE ( 'NONE', ( #352 ), #258, .T. ) ;
#26 = VECTOR ( 'NONE', #386, 1000.000000000000000 ) ;
#27 = CARTESIAN_POINT ( 'NONE',  ( -48.69999999999999600, -5.000000000000004400, 6.123233995736764300E-016 ) ) ;
#28 = ADVANCED_FACE ( 'NONE', ( #111 ), #120, .F. ) ;
#29 = EDGE_CURVE ( 'NONE', #228, #66, #343, .T. ) ;
#30 = CARTESIAN_POINT ( 'NONE',  ( 1.000000000000000000, 0.0000000000000000000, 0.0000000000000000000 ) ) ;
#31 = EDGE_CURVE ( 'NONE', #238, #178, #101, .T. ) ;
#32 = DIRECTION ( 'NONE',  ( 0.0000000000000000000, 0.0000000000000000000, 1.000000000000000000 ) ) ;
#33 = ORIENTED_EDGE ( 'NONE', *, *, #29, .T. ) ;
#34 = AXIS2_PLACEMENT_3D ( 'NONE', #112, #3, #232 ) ;
#35 = CARTESIAN_POINT ( 'NONE',  ( 0.0000000000000000000, 0.0000000000000000000, 0.0000000000000000000 ) ) ;
#36 = EDGE_CURVE ( 'NONE', #274, #61, #10, .T. ) ;
#37 = PERSON_AND_ORGANIZATION ( #376, #121 ) ;
#38 = EDGE_CURVE ( 'NONE', #181, #77, #270, .T. ) ;
#39 = VECTOR ( 'NONE', #267, 1000.000000000000000 ) ;
#40 = APPROVAL ( #167, 'UNSPECIFIED' ) ;
#41 = PERSON_AND_ORGANIZATION_ROLE ( 'classification_officer' ) ;
#42 = EDGE_CURVE ( 'NONE', #178, #238, #186, .T. ) ;
#43 = ORIENTED_EDGE ( 'NONE', *, *, #38, .F. ) ;
#44 = DIRECTION ( 'NONE',  ( -1.301042606982605300E-016, 1.000000000000000000, 0.0000000000000000000 ) ) ;
#45 = ORIENTED_EDGE ( 'NONE', *, *, #9, .F. ) ;
#46 = CARTESIAN_POINT ( 'NONE',  ( 4.336808689942017700E-016, -1.193131631831312400E-016, 0.0000000000000000000 ) ) ;
#47 = DIRECTION ( 'NONE',  ( 0.0000000000000000000, 0.0000000000000000000, 1.000000000000000000 ) ) ;
#48 = ORIENTED_EDGE ( 'NONE', *, *, #31, .F. ) ;
#49 = PLANE ( 'NONE',  #222 ) ;
#50 = DIRECTION ( 'NONE',  ( 1.000000000000000000, 1.193131631831312900E-016, -0.0000000000000000000 ) ) ;
#51 = AXIS2_PLACEMENT_3D ( 'NONE', #139, #358, #173 ) ;
#52 = CONICAL_SURFACE ( 'NONE', #132, 4.999999999999998200, 0.7853981633974540500 ) ;
#53 = CARTESIAN_POINT ( 'NONE',  ( -48.69999999999999600, -5.929864210201623900E-015, 0.0000000000000000000 ) ) ;
#54 = ORIENTED_EDGE ( 'NONE', *, *, #62, .T. ) ;
#55 = PLANE ( 'NONE',  #22 ) ;
#56 = DIRECTION ( 'NONE',  ( 0.7071067811865435800, -0.7071067811865514600, 8.659560562354982200E-017 ) ) ;
#57 = ADVANCED_FACE ( 'NONE', ( #409 ), #165, .T. ) ;
#58 = CC_DESIGN_APPROVAL ( #40, ( #11 ) ) ;
#59 = COORDINATED_UNIVERSAL_TIME_OFFSET ( 9, 0, .AHEAD. ) ;
#60 = CIRCLE ( 'NONE', #286, 4.700000000000000200 ) ;
#61 = VERTEX_POINT ( 'NONE', #362 ) ;
#62 = EDGE_CURVE ( 'NONE', #77, #61, #250, .T. ) ;
#63 = DIRECTION ( 'NONE',  ( -1.000000000000000000, -0.0000000000000000000, -0.0000000000000000000 ) ) ;
#64 = DIRECTION ( 'NONE',  ( -1.301042606982605600E-016, 1.000000000000000000, 0.0000000000000000000 ) ) ;
#65 = ADVANCED_BREP_SHAPE_REPRESENTATION ( '03-3184', ( #194, #335, #281 ), #197 ) ;
#66 = VERTEX_POINT ( 'NONE', #180 ) ;
#67 = ORIENTED_EDGE ( 'NONE', *, *, #14, .F. ) ;
#68 = AXIS2_PLACEMENT_3D ( 'NONE', #253, #63, #190 ) ;
#69 = LOCAL_TIME ( 16, 38, 19.00000000000000000, #154 ) ;
#70 = FACE_OUTER_BOUND ( 'NONE', #157, .T. ) ;
#71 = ORIENTED_EDGE ( 'NONE', *, *, #291, .F. ) ;
#72 = APPROVAL_STATUS ( 'not_yet_approved' ) ;
#73 = LINE ( 'NONE', #27, #364 ) ;
#74 = DESIGN_CONTEXT ( 'detailed design', #106, 'design' ) ;
#75 = FACE_OUTER_BOUND ( 'NONE', #271, .T. ) ;
#76 = AXIS2_PLACEMENT_3D ( 'NONE', #413, #230, #44 ) ;
#77 = VERTEX_POINT ( 'NONE', #147 ) ;
#78 = CARTESIAN_POINT ( 'NONE',  ( 1.000000000000000400, -4.000000000000000000, 4.898587196589412800E-016 ) ) ;
#79 = DIRECTION ( 'NONE',  ( 1.000000000000000000, 1.193131631831312900E-016, -0.0000000000000000000 ) ) ;
#80 = APPROVAL_DATE_TIME ( #164, #40 ) ;
#81 = CC_DESIGN_PERSON_AND_ORGANIZATION_ASSIGNMENT ( #396, #199, ( #11 ) ) ;
#82 = VECTOR ( 'NONE', #389, 1000.000000000000000 ) ;
#83 = ORIENTED_EDGE ( 'NONE', *, *, #9, .T. ) ;
#84 = CARTESIAN_POINT ( 'NONE',  ( 0.0000000000000000000, 0.0000000000000000000, 0.0000000000000000000 ) ) ;
#85 = EDGE_CURVE ( 'NONE', #61, #274, #93, .T. ) ;
#86 = LINE ( 'NONE', #402, #404 ) ;
#87 = DIRECTION ( 'NONE',  ( 0.0000000000000000000, 1.000000000000000000, 0.0000000000000000000 ) ) ;
#88 = EDGE_LOOP ( 'NONE', ( #12, #207, #328, #187 ) ) ;
#89 = DIRECTION ( 'NONE',  ( -0.0000000000000000000, 0.0000000000000000000, 1.000000000000000000 ) ) ;
#90 = AXIS2_PLACEMENT_3D ( 'NONE', #97, #315, #130 ) ;
#91 = APPROVAL_PERSON_ORGANIZATION ( #175, #40, #378 ) ;
#92 = ADVANCED_FACE ( 'NONE', ( #177 ), #49, .T. ) ;
#93 = CIRCLE ( 'NONE', #162, 5.000000000000000000 ) ;
#94 = DIRECTION ( 'NONE',  ( -1.301042606982605600E-016, 1.000000000000000000, 0.0000000000000000000 ) ) ;
#95 = VERTEX_POINT ( 'NONE', #272 ) ;
#96 = CARTESIAN_POINT ( 'NONE',  ( 1.000000000000000400, -4.000000000000000000, 4.898587196589412800E-016 ) ) ;
#97 = CARTESIAN_POINT ( 'NONE',  ( 0.9999999999999995600, 4.000000000000000000, 0.0000000000000000000 ) ) ;
#98 = VERTEX_POINT ( 'NONE', #115 ) ;
#99 = AXIS2_PLACEMENT_3D ( 'NONE', #148, #365, #87 ) ;
#100 = COORDINATED_UNIVERSAL_TIME_OFFSET ( 9, 0, .AHEAD. ) ;
#101 = CIRCLE ( 'NONE', #51, 4.000000000000000000 ) ;
#102 = ORIENTED_EDGE ( 'NONE', *, *, #291, .T. ) ;
#103 = CC_DESIGN_PERSON_AND_ORGANIZATION_ASSIGNMENT ( #319, #411, ( #11 ) ) ;
#104 = APPROVAL_STATUS ( 'not_yet_approved' ) ;
#105 = EDGE_CURVE ( 'NONE', #181, #274, #399, .T. ) ;
#106 = APPLICATION_CONTEXT ( 'configuration controlled 3d designs of mechanical parts and assemblies' ) ;
#107 = ORIENTED_EDGE ( 'NONE', *, *, #314, .F. ) ;
#108 = DIRECTION ( 'NONE',  ( 1.000000000000000000, 1.193131631831312900E-016, -0.0000000000000000000 ) ) ;
#109 = LOCAL_TIME ( 16, 38, 19.00000000000000000, #196 ) ;
#110 = AXIS2_PLACEMENT_3D ( 'NONE', #53, #244, #155 ) ;
#111 = FACE_OUTER_BOUND ( 'NONE', #193, .T. ) ;
#112 = CARTESIAN_POINT ( 'NONE',  ( 1.000000000000000900, 5.421010862427527100E-017, 0.0000000000000000000 ) ) ;
#113 = CIRCLE ( 'NONE', #68, 4.000000000000000000 ) ;
#114 = DIRECTION ( 'NONE',  ( 1.000000000000000000, 1.193131631831312900E-016, -0.0000000000000000000 ) ) ;
#115 = CARTESIAN_POINT ( 'NONE',  ( 39.00000000000000000, 0.0000000000000000000, 4.000000000000007100 ) ) ;
#116 = ORIENTED_EDGE ( 'NONE', *, *, #85, .F. ) ;
#117 = DIRECTION ( 'NONE',  ( 1.000000000000000000, 1.193131631831312900E-016, -0.0000000000000000000 ) ) ;
#118 = DIRECTION ( 'NONE',  ( 1.000000000000000000, 1.193131631831312900E-016, -0.0000000000000000000 ) ) ;
#119 = AXIS2_PLACEMENT_3D ( 'NONE', #242, #50, #275 ) ;
#120 = PLANE ( 'NONE',  #34 ) ;
#121 = ORGANIZATION ( 'UNSPECIFIED', 'UNSPECIFIED', '' ) ;
#122 = CARTESIAN_POINT ( 'NONE',  ( -48.99999999999998600, -4.700000000000006400, 5.939536975864662000E-016 ) ) ;
#123 = LINE ( 'NONE', #78, #39 ) ;
#124 = DIRECTION ( 'NONE',  ( 0.0000000000000000000, 1.000000000000000000, 0.0000000000000000000 ) ) ;
#125 = ADVANCED_FACE ( 'NONE', ( #70 ), #143, .T. ) ;
#126 = CARTESIAN_POINT ( 'NONE',  ( 9.109335217267271300E-016, -4.000000000000000000, 0.0000000000000000000 ) ) ;
#127 = DIRECTION ( 'NONE',  ( 0.0000000000000000000, 0.0000000000000000000, 1.000000000000000000 ) ) ;
#128 = EDGE_CURVE ( 'NONE', #333, #77, #321, .T. ) ;
#129 = ORIENTED_EDGE ( 'NONE', *, *, #16, .T. ) ;
#130 = DIRECTION ( 'NONE',  ( -1.193131631831312900E-016, 1.000000000000000000, 0.0000000000000000000 ) ) ;
#131 = ORIENTED_EDGE ( 'NONE', *, *, #191, .T. ) ;
#132 = AXIS2_PLACEMENT_3D ( 'NONE', #214, #392, #397 ) ;
#133 = PERSON_AND_ORGANIZATION_ROLE ( 'creator' ) ;
#134 = APPROVAL_DATE_TIME ( #216, #348 ) ;
#135 = ORIENTED_EDGE ( 'NONE', *, *, #42, .T. ) ;
#136 = MECHANICAL_CONTEXT ( 'NONE', #213, 'mechanical' ) ;
#137 = UNCERTAINTY_MEASURE_WITH_UNIT (LENGTH_MEASURE( 1.000000000000000100E-005 ), #220, 'distance_accuracy_value', 'NONE');
#138 = ORIENTED_EDGE ( 'NONE', *, *, #19, .F. ) ;
#139 = CARTESIAN_POINT ( 'NONE',  ( 4.336808689942017700E-016, -1.193131631831312400E-016, 0.0000000000000000000 ) ) ;
#140 = DIRECTION ( 'NONE',  ( 1.193131631831313200E-016, -1.000000000000000000, 0.0000000000000000000 ) ) ;
#141 = APPROVAL_PERSON_ORGANIZATION ( #225, #348, #289 ) ;
#142 = CARTESIAN_POINT ( 'NONE',  ( 1.000000000000000000, 0.0000000000000000000, 0.0000000000000000000 ) ) ;
#143 = CONICAL_SURFACE ( 'NONE', #202, 4.000000000000000000, 0.7853981633974498300 ) ;
#144 = ORIENTED_EDGE ( 'NONE', *, *, #105, .F. ) ;
#145 = DIRECTION ( 'NONE',  ( 1.193131631831313200E-016, -1.000000000000000000, 0.0000000000000000000 ) ) ;
#146 = EDGE_CURVE ( 'NONE', #77, #181, #156, .T. ) ;
#147 = CARTESIAN_POINT ( 'NONE',  ( -48.69999999999999600, 4.999999999999992000, 0.0000000000000000000 ) ) ;
#148 = CARTESIAN_POINT ( 'NONE',  ( -48.69999999999999600, -5.929864210201623900E-015, 0.0000000000000000000 ) ) ;
#149 = ORIENTED_EDGE ( 'NONE', *, *, #4, .F. ) ;
#150 = CARTESIAN_POINT ( 'NONE',  ( -48.99999999999998600, -5.965658159156562900E-015, 0.0000000000000000000 ) ) ;
#151 = AXIS2_PLACEMENT_3D ( 'NONE', #30, #255, #64 ) ;
#152 = ADVANCED_FACE ( 'NONE', ( #387 ), #5, .T. ) ;
#153 = DIRECTION ( 'NONE',  ( -1.084202172485504400E-016, 1.000000000000000000, 0.0000000000000000000 ) ) ;
#154 = COORDINATED_UNIVERSAL_TIME_OFFSET ( 9, 0, .AHEAD. ) ;
#155 = DIRECTION ( 'NONE',  ( 0.0000000000000000000, 1.000000000000000000, 0.0000000000000000000 ) ) ;
#156 = CIRCLE ( 'NONE', #245, 4.999999999999998200 ) ;
#157 = EDGE_LOOP ( 'NONE', ( #67, #48, #171, #367 ) ) ;
#158 = CARTESIAN_POINT ( 'NONE',  ( 1.000000000000000700, 0.0000000000000000000, 0.0000000000000000000 ) ) ;
#159 = CIRCLE ( 'NONE', #329, 4.000000000000000000 ) ;
#160 = CARTESIAN_POINT ( 'NONE',  ( 39.00000000000000000, 0.0000000000000000000, 0.0000000000000000000 ) ) ;
#161 = DIRECTION ( 'NONE',  ( -1.000000000000000000, -0.0000000000000000000, -0.0000000000000000000 ) ) ;
#162 = AXIS2_PLACEMENT_3D ( 'NONE', #301, #117, #336 ) ;
#163 = ORIENTED_EDGE ( 'NONE', *, *, #29, .F. ) ;
#164 = DATE_AND_TIME ( #247, #331 ) ;
#165 = CYLINDRICAL_SURFACE ( 'NONE', #182, 4.000000000000000000 ) ;
#166 = ORIENTED_EDGE ( 'NONE', *, *, #105, .T. ) ;
#167 = APPROVAL_STATUS ( 'not_yet_approved' ) ;
#168 = EDGE_CURVE ( 'NONE', #333, #374, #60, .T. ) ;
#169 = DIRECTION ( 'NONE',  ( 0.0000000000000000000, 0.0000000000000000000, 1.000000000000000000 ) ) ;
#170 = CYLINDRICAL_SURFACE ( 'NONE', #151, 4.999999999999999100 ) ;
#171 = ORIENTED_EDGE ( 'NONE', *, *, #347, .T. ) ;
#172 = DIRECTION ( 'NONE',  ( -1.084202172485504400E-016, 1.000000000000000000, 0.0000000000000000000 ) ) ;
#173 = DIRECTION ( 'NONE',  ( -1.193131631831312900E-016, 1.000000000000000000, 0.0000000000000000000 ) ) ;
#174 = AXIS2_PLACEMENT_3D ( 'NONE', #400, #217, #189 ) ;
#175 = PERSON_AND_ORGANIZATION ( #376, #121 ) ;
#176 = CARTESIAN_POINT ( 'NONE',  ( -4.357178373832340200E-017, 4.000000000000000000, 4.898587196589412800E-016 ) ) ;
#177 = FACE_OUTER_BOUND ( 'NONE', #234, .T. ) ;
#178 = VERTEX_POINT ( 'NONE', #368 ) ;
#179 = APPLICATION_PROTOCOL_DEFINITION ( 'international standard', 'config_control_design', 1994, #106 ) ;
#180 = CARTESIAN_POINT ( 'NONE',  ( 0.9999999999999995600, 4.000000000000000000, 0.0000000000000000000 ) ) ;
#181 = VERTEX_POINT ( 'NONE', #288 ) ;
#182 = AXIS2_PLACEMENT_3D ( 'NONE', #264, #118, #172 ) ;
#183 = CARTESIAN_POINT ( 'NONE',  ( -0.9999999999999958900, -5.000000000000000000, 0.0000000000000000000 ) ) ;
#184 = PERSON_AND_ORGANIZATION ( #376, #121 ) ;
#185 = APPLICATION_PROTOCOL_DEFINITION ( 'international standard', 'config_control_design', 1994, #213 ) ;
#186 = CIRCLE ( 'NONE', #119, 4.000000000000000000 ) ;
#187 = ORIENTED_EDGE ( 'NONE', *, *, #347, .F. ) ;
#188 = ADVANCED_FACE ( 'NONE', ( #237 ), #313, .T. ) ;
#189 = DIRECTION ( 'NONE',  ( 0.0000000000000000000, 0.0000000000000000000, 1.000000000000000000 ) ) ;
#190 = DIRECTION ( 'NONE',  ( 0.0000000000000000000, 0.0000000000000000000, 1.000000000000000000 ) ) ;
#191 = EDGE_CURVE ( 'NONE', #374, #181, #73, .T. ) ;
#192 = DIRECTION ( 'NONE',  ( -1.000000000000000000, -0.0000000000000000000, -0.0000000000000000000 ) ) ;
#193 = EDGE_LOOP ( 'NONE', ( #102, #290 ) ) ;
#194 = MANIFOLD_SOLID_BREP ( 'È¸Àü3', #218 ) ;
#195 = FACE_OUTER_BOUND ( 'NONE', #410, .T. ) ;
#196 = COORDINATED_UNIVERSAL_TIME_OFFSET ( 9, 0, .AHEAD. ) ;
#197 =( GEOMETRIC_REPRESENTATION_CONTEXT ( 3 ) GLOBAL_UNCERTAINTY_ASSIGNED_CONTEXT ( ( #137 ) ) GLOBAL_UNIT_ASSIGNED_CONTEXT ( ( #220, #24, #246 ) ) REPRESENTATION_CONTEXT ( 'NONE', 'WORKASPACE' ) );
#198 = VECTOR ( 'NONE', #263, 1000.000000000000000 ) ;
#199 = PERSON_AND_ORGANIZATION_ROLE ( 'creator' ) ;
#200 = PRODUCT ( '03-3184', '03-3184', '', ( #136 ) ) ;
#201 = ORIENTED_EDGE ( 'NONE', *, *, #314, .T. ) ;
#202 = AXIS2_PLACEMENT_3D ( 'NONE', #208, #240, #145 ) ;
#203 = SHAPE_DEFINITION_REPRESENTATION ( #300, #65 ) ;
#204 = LINE ( 'NONE', #176, #198 ) ;
#205 = VECTOR ( 'NONE', #312, 1000.000000000000000 ) ;
#206 = CARTESIAN_POINT ( 'NONE',  ( -48.69999999999999600, 4.999999999999992000, 0.0000000000000000000 ) ) ;
#207 = ORIENTED_EDGE ( 'NONE', *, *, #14, .T. ) ;
#208 = CARTESIAN_POINT ( 'NONE',  ( 4.336808689942017700E-016, -1.193131631831312400E-016, 0.0000000000000000000 ) ) ;
#209 = EDGE_CURVE ( 'NONE', #361, #371, #159, .T. ) ;
#210 = DIRECTION ( 'NONE',  ( 1.193131631831312900E-016, -1.000000000000000000, 0.0000000000000000000 ) ) ;
#211 = ORIENTED_EDGE ( 'NONE', *, *, #254, .T. ) ;
#212 = EDGE_LOOP ( 'NONE', ( #305, #251, #201, #317 ) ) ;
#213 = APPLICATION_CONTEXT ( 'configuration controlled 3d designs of mechanical parts and assemblies' ) ;
#214 = CARTESIAN_POINT ( 'NONE',  ( -48.69999999999999600, -5.929864210201623900E-015, 0.0000000000000000000 ) ) ;
#215 = ADVANCED_FACE ( 'NONE', ( #339 ), #384, .T. ) ;
#216 = DATE_AND_TIME ( #296, #377 ) ;
#217 = DIRECTION ( 'NONE',  ( -1.000000000000000000, -0.0000000000000000000, -0.0000000000000000000 ) ) ;
#218 = CLOSED_SHELL ( 'NONE', ( #152, #344, #28, #248 ) ) ;
#219 = DIRECTION ( 'NONE',  ( -1.000000000000000000, -0.0000000000000000000, -0.0000000000000000000 ) ) ;
#220 =( LENGTH_UNIT ( ) NAMED_UNIT ( * ) SI_UNIT ( .MILLI., .METRE. ) );
#221 = CONICAL_SURFACE ( 'NONE', #110, 4.999999999999998200, 0.7853981633974540500 ) ;
#222 = AXIS2_PLACEMENT_3D ( 'NONE', #299, #390, #210 ) ;
#223 = ORIENTED_EDGE ( 'NONE', *, *, #146, .T. ) ;
#224 = EDGE_LOOP ( 'NONE', ( #406, #383 ) ) ;
#225 = PERSON_AND_ORGANIZATION ( #376, #121 ) ;
#226 = SECURITY_CLASSIFICATION_LEVEL ( 'unclassified' ) ;
#227 = FACE_OUTER_BOUND ( 'NONE', #379, .T. ) ;
#228 = VERTEX_POINT ( 'NONE', #96 ) ;
#229 = EDGE_CURVE ( 'NONE', #95, #98, #7, .T. ) ;
#230 = DIRECTION ( 'NONE',  ( 1.000000000000000000, 1.193131631831312900E-016, -0.0000000000000000000 ) ) ;
#231 = FACE_OUTER_BOUND ( 'NONE', #243, .T. ) ;
#232 = DIRECTION ( 'NONE',  ( 0.0000000000000000000, 0.0000000000000000000, -1.000000000000000000 ) ) ;
#233 = ORIENTED_EDGE ( 'NONE', *, *, #62, .F. ) ;
#234 = EDGE_LOOP ( 'NONE', ( #349, #138 ) ) ;
#235 = DIRECTION ( 'NONE',  ( 1.000000000000000000, 1.193131631831312900E-016, -0.0000000000000000000 ) ) ;
#236 = PERSON_AND_ORGANIZATION ( #376, #121 ) ;
#237 = FACE_OUTER_BOUND ( 'NONE', #298, .T. ) ;
#238 = VERTEX_POINT ( 'NONE', #282 ) ;
#239 = DIRECTION ( 'NONE',  ( -1.000000000000000000, -0.0000000000000000000, -0.0000000000000000000 ) ) ;
#240 = DIRECTION ( 'NONE',  ( -1.000000000000000000, -1.193131631831312900E-016, 0.0000000000000000000 ) ) ;
#241 = FACE_OUTER_BOUND ( 'NONE', #212, .T. ) ;
#242 = CARTESIAN_POINT ( 'NONE',  ( 4.336808689942017700E-016, -1.193131631831312400E-016, 0.0000000000000000000 ) ) ;
#243 = EDGE_LOOP ( 'NONE', ( #355, #381, #259, #43 ) ) ;
#244 = DIRECTION ( 'NONE',  ( 1.000000000000000000, 1.193131631831312900E-016, -0.0000000000000000000 ) ) ;
#245 = AXIS2_PLACEMENT_3D ( 'NONE', #297, #114, #334 ) ;
#246 =( NAMED_UNIT ( * ) SI_UNIT ( $, .STERADIAN. ) SOLID_ANGLE_UNIT ( ) );
#247 = CALENDAR_DATE ( 2023, 12, 7 ) ;
#248 = ADVANCED_FACE ( 'NONE', ( #323 ), #55, .F. ) ;
#249 = DIRECTION ( 'NONE',  ( 1.000000000000000000, 1.193131631831312900E-016, -0.0000000000000000000 ) ) ;
#250 = LINE ( 'NONE', #303, #82 ) ;
#251 = ORIENTED_EDGE ( 'NONE', *, *, #229, .T. ) ;
#252 = DIRECTION ( 'NONE',  ( -0.7071067811865463500, -0.7071067811865487900, 0.0000000000000000000 ) ) ;
#253 = CARTESIAN_POINT ( 'NONE',  ( 1.000000000000000700, 0.0000000000000000000, 0.0000000000000000000 ) ) ;
#254 = EDGE_CURVE ( 'NONE', #98, #95, #412, .T. ) ;
#255 = DIRECTION ( 'NONE',  ( 1.000000000000000000, 1.193131631831312900E-016, -0.0000000000000000000 ) ) ;
#256 = ORIENTED_EDGE ( 'NONE', *, *, #4, .T. ) ;
#257 = DATE_AND_TIME ( #341, #8 ) ;
#258 = CONICAL_SURFACE ( 'NONE', #373, 4.000000000000000000, 0.7853981633974498300 ) ;
#259 = ORIENTED_EDGE ( 'NONE', *, *, #128, .T. ) ;
#260 = DIRECTION ( 'NONE',  ( 1.000000000000000000, 1.193131631831312900E-016, -0.0000000000000000000 ) ) ;
#261 = LINE ( 'NONE', #21, #205 ) ;
#262 = DATE_TIME_ROLE ( 'classification_date' ) ;
#263 = DIRECTION ( 'NONE',  ( -0.7071067811865465700, 0.7071067811865485700, 8.659560562354947600E-017 ) ) ;
#264 = CARTESIAN_POINT ( 'NONE',  ( 1.000000000000000000, 0.0000000000000000000, 0.0000000000000000000 ) ) ;
#265 = ORIENTED_EDGE ( 'NONE', *, *, #38, .T. ) ;
#266 = DIRECTION ( 'NONE',  ( -1.000000000000000000, -1.193131631831312900E-016, 0.0000000000000000000 ) ) ;
#267 = DIRECTION ( 'NONE',  ( 1.000000000000000000, 1.193131631831312900E-016, -0.0000000000000000000 ) ) ;
#268 = APPROVAL_DATE_TIME ( #351, #342 ) ;
#269 = CARTESIAN_POINT ( 'NONE',  ( -48.99999999999998600, -5.965658159156562900E-015, 0.0000000000000000000 ) ) ;
#270 = CIRCLE ( 'NONE', #99, 4.999999999999998200 ) ;
#271 = EDGE_LOOP ( 'NONE', ( #338, #131, #388, #17 ) ) ;
#272 = CARTESIAN_POINT ( 'NONE',  ( 39.00000000000000000, 4.898587196589422700E-016, -4.000000000000007100 ) ) ;
#273 = EDGE_CURVE ( 'NONE', #95, #361, #261, .T. ) ;
#274 = VERTEX_POINT ( 'NONE', #183 ) ;
#275 = DIRECTION ( 'NONE',  ( -1.193131631831312900E-016, 1.000000000000000000, 0.0000000000000000000 ) ) ;
#276 = CARTESIAN_POINT ( 'NONE',  ( 0.9999999999999995600, 4.000000000000000000, 0.0000000000000000000 ) ) ;
#277 = APPROVAL_PERSON_ORGANIZATION ( #357, #342, #320 ) ;
#278 = DIRECTION ( 'NONE',  ( -1.000000000000000000, 0.0000000000000000000, -0.0000000000000000000 ) ) ;
#279 = LINE ( 'NONE', #276, #26 ) ;
#280 = ADVANCED_FACE ( 'NONE', ( #195 ), #284, .T. ) ;
#281 = AXIS2_PLACEMENT_3D ( 'NONE', #35, #169, #354 ) ;
#282 = CARTESIAN_POINT ( 'NONE',  ( 9.109335217267271300E-016, -4.000000000000000000, 4.898587196589412800E-016 ) ) ;
#283 = EDGE_LOOP ( 'NONE', ( #223, #166, #116, #233 ) ) ;
#284 = PLANE ( 'NONE',  #90 ) ;
#285 = SECURITY_CLASSIFICATION ( '', '', #226 ) ;
#286 = AXIS2_PLACEMENT_3D ( 'NONE', #150, #340, #124 ) ;
#287 = CIRCLE ( 'NONE', #337, 4.000000000000000000 ) ;
#288 = CARTESIAN_POINT ( 'NONE',  ( -48.69999999999999600, -5.000000000000004400, 6.123233995736768300E-016 ) ) ;
#289 = APPROVAL_ROLE ( '' ) ;
#290 = ORIENTED_EDGE ( 'NONE', *, *, #209, .T. ) ;
#291 = EDGE_CURVE ( 'NONE', #371, #361, #113, .T. ) ;
#292 = CARTESIAN_POINT ( 'NONE',  ( 1.000000000000000000, 5.198687343350687000E-033, 0.0000000000000000000 ) ) ;
#293 = EDGE_LOOP ( 'NONE', ( #211, #2, #71, #107 ) ) ;
#294 = DIRECTION ( 'NONE',  ( 0.0000000000000000000, 1.000000000000000000, 0.0000000000000000000 ) ) ;
#295 = CC_DESIGN_PERSON_AND_ORGANIZATION_ASSIGNMENT ( #37, #324, ( #200 ) ) ;
#296 = CALENDAR_DATE ( 2023, 12, 7 ) ;
#297 = CARTESIAN_POINT ( 'NONE',  ( -48.69999999999999600, -5.929864210201623900E-015, 0.0000000000000000000 ) ) ;
#298 = EDGE_LOOP ( 'NONE', ( #135, #256, #45, #311 ) ) ;
#299 = CARTESIAN_POINT ( 'NONE',  ( -48.99999999999998600, -5.965658159156562900E-015, 0.0000000000000000000 ) ) ;
#300 = PRODUCT_DEFINITION_SHAPE ( 'NONE', 'NONE',  #318 ) ;
#301 = CARTESIAN_POINT ( 'NONE',  ( -0.9999999999999965600, -2.386263263662621400E-016, 0.0000000000000000000 ) ) ;
#302 = CC_DESIGN_PERSON_AND_ORGANIZATION_ASSIGNMENT ( #236, #41, ( #285 ) ) ;
#303 = CARTESIAN_POINT ( 'NONE',  ( 0.9999999999999993300, 4.999999999999999100, 0.0000000000000000000 ) ) ;
#304 = AXIS2_PLACEMENT_3D ( 'NONE', #84, #239, #47 ) ;
#305 = ORIENTED_EDGE ( 'NONE', *, *, #273, .F. ) ;
#306 = CARTESIAN_POINT ( 'NONE',  ( 1.000000000000000700, 0.0000000000000000000, 4.000000000000000000 ) ) ;
#307 = DATE_AND_TIME ( #385, #69 ) ;
#308 = CARTESIAN_POINT ( 'NONE',  ( 1.000000000000000000, 0.0000000000000000000, 0.0000000000000000000 ) ) ;
#309 = ADVANCED_FACE ( 'NONE', ( #227 ), #170, .T. ) ;
#310 = VECTOR ( 'NONE', #13, 999.9999999999998900 ) ;
#311 = ORIENTED_EDGE ( 'NONE', *, *, #16, .F. ) ;
#312 = DIRECTION ( 'NONE',  ( -1.000000000000000000, -0.0000000000000000000, -0.0000000000000000000 ) ) ;
#313 = CYLINDRICAL_SURFACE ( 'NONE', #350, 4.000000000000000000 ) ;
#314 = EDGE_CURVE ( 'NONE', #98, #371, #86, .T. ) ;
#315 = DIRECTION ( 'NONE',  ( 1.000000000000000000, 1.193131631831312900E-016, -0.0000000000000000000 ) ) ;
#316 = CYLINDRICAL_SURFACE ( 'NONE', #174, 4.000000000000003600 ) ;
#317 = ORIENTED_EDGE ( 'NONE', *, *, #209, .F. ) ;
#318 = PRODUCT_DEFINITION ( 'UNKNOWN', '', #11, #74 ) ;
#319 = PERSON_AND_ORGANIZATION ( #376, #121 ) ;
#320 = APPROVAL_ROLE ( '' ) ;
#321 = LINE ( 'NONE', #206, #310 ) ;
#322 = ORIENTED_EDGE ( 'NONE', *, *, #36, .F. ) ;
#323 = FACE_OUTER_BOUND ( 'NONE', #224, .T. ) ;
#324 = PERSON_AND_ORGANIZATION_ROLE ( 'design_owner' ) ;
#325 = CC_DESIGN_DATE_AND_TIME_ASSIGNMENT ( #307, #262, ( #285 ) ) ;
#326 = VECTOR ( 'NONE', #252, 1000.000000000000000 ) ;
#327 = DIRECTION ( 'NONE',  ( -1.084202172485504400E-016, 1.000000000000000000, 0.0000000000000000000 ) ) ;
#328 = ORIENTED_EDGE ( 'NONE', *, *, #85, .T. ) ;
#329 = AXIS2_PLACEMENT_3D ( 'NONE', #158, #346, #127 ) ;
#330 = DIRECTION ( 'NONE',  ( -1.084202172485504400E-016, 1.000000000000000000, 0.0000000000000000000 ) ) ;
#331 = LOCAL_TIME ( 16, 38, 19.00000000000000000, #408 ) ;
#332 = VECTOR ( 'NONE', #15, 1000.000000000000000 ) ;
#333 = VERTEX_POINT ( 'NONE', #370 ) ;
#334 = DIRECTION ( 'NONE',  ( 0.0000000000000000000, 1.000000000000000000, 0.0000000000000000000 ) ) ;
#335 = MANIFOLD_SOLID_BREP ( 'È¸Àü4', #393 ) ;
#336 = DIRECTION ( 'NONE',  ( -1.301042606982605300E-016, 1.000000000000000000, 0.0000000000000000000 ) ) ;
#337 = AXIS2_PLACEMENT_3D ( 'NONE', #292, #108, #330 ) ;
#338 = ORIENTED_EDGE ( 'NONE', *, *, #168, .T. ) ;
#339 = FACE_OUTER_BOUND ( 'NONE', #283, .T. ) ;
#340 = DIRECTION ( 'NONE',  ( 1.000000000000000000, 1.193131631831312900E-016, -0.0000000000000000000 ) ) ;
#341 = CALENDAR_DATE ( 2023, 12, 7 ) ;
#342 = APPROVAL ( #104, 'UNSPECIFIED' ) ;
#343 = CIRCLE ( 'NONE', #1, 4.000000000000000000 ) ;
#344 = ADVANCED_FACE ( 'NONE', ( #241 ), #316, .T. ) ;
#345 = ORIENTED_EDGE ( 'NONE', *, *, #31, .T. ) ;
#346 = DIRECTION ( 'NONE',  ( -1.000000000000000000, -0.0000000000000000000, -0.0000000000000000000 ) ) ;
#347 = EDGE_CURVE ( 'NONE', #238, #274, #391, .T. ) ;
#348 = APPROVAL ( #72, 'UNSPECIFIED' ) ;
#349 = ORIENTED_EDGE ( 'NONE', *, *, #168, .F. ) ;
#350 = AXIS2_PLACEMENT_3D ( 'NONE', #142, #260, #153 ) ;
#351 = DATE_AND_TIME ( #23, #109 ) ;
#352 = FACE_OUTER_BOUND ( 'NONE', #88, .T. ) ;
#353 = DATE_TIME_ROLE ( 'creation_date' ) ;
#354 = DIRECTION ( 'NONE',  ( 1.000000000000000000, 0.0000000000000000000, 0.0000000000000000000 ) ) ;
#355 = ORIENTED_EDGE ( 'NONE', *, *, #191, .F. ) ;
#356 = AXIS2_PLACEMENT_3D ( 'NONE', #269, #79, #294 ) ;
#357 = PERSON_AND_ORGANIZATION ( #376, #121 ) ;
#358 = DIRECTION ( 'NONE',  ( 1.000000000000000000, 1.193131631831312900E-016, -0.0000000000000000000 ) ) ;
#359 = CIRCLE ( 'NONE', #356, 4.700000000000000200 ) ;
#360 = CC_DESIGN_APPROVAL ( #342, ( #318 ) ) ;
#361 = VERTEX_POINT ( 'NONE', #20 ) ;
#362 = CARTESIAN_POINT ( 'NONE',  ( -0.9999999999999972200, 5.000000000000000000, 6.123233995736766300E-016 ) ) ;
#363 = CC_DESIGN_APPROVAL ( #348, ( #285 ) ) ;
#364 = VECTOR ( 'NONE', #56, 1000.000000000000000 ) ;
#365 = DIRECTION ( 'NONE',  ( 1.000000000000000000, 1.193131631831312900E-016, -0.0000000000000000000 ) ) ;
#366 = AXIS2_PLACEMENT_3D ( 'NONE', #372, #192, #403 ) ;
#367 = ORIENTED_EDGE ( 'NONE', *, *, #36, .T. ) ;
#368 = CARTESIAN_POINT ( 'NONE',  ( -4.357178373832340200E-017, 4.000000000000000000, 0.0000000000000000000 ) ) ;
#369 = ADVANCED_FACE ( 'NONE', ( #231 ), #221, .T. ) ;
#370 = CARTESIAN_POINT ( 'NONE',  ( -48.99999999999998600, 4.699999999999994000, 0.0000000000000000000 ) ) ;
#371 = VERTEX_POINT ( 'NONE', #306 ) ;
#372 = CARTESIAN_POINT ( 'NONE',  ( 39.00000000000000000, 0.0000000000000000000, 0.0000000000000000000 ) ) ;
#373 = AXIS2_PLACEMENT_3D ( 'NONE', #46, #266, #140 ) ;
#374 = VERTEX_POINT ( 'NONE', #122 ) ;
#375 = CC_DESIGN_PERSON_AND_ORGANIZATION_ASSIGNMENT ( #184, #133, ( #318 ) ) ;
#376 = PERSON ( 'UNSPECIFIED', 'UNSPECIFIED', 'UNSPECIFIED', ('UNSPECIFIED'), ('UNSPECIFIED'), ('UNSPECIFIED') ) ;
#377 = LOCAL_TIME ( 16, 38, 19.00000000000000000, #59 ) ;
#378 = APPROVAL_ROLE ( '' ) ;
#379 = EDGE_LOOP ( 'NONE', ( #144, #265, #54, #322 ) ) ;
#380 = CC_DESIGN_SECURITY_CLASSIFICATION ( #285, ( #11 ) ) ;
#381 = ORIENTED_EDGE ( 'NONE', *, *, #19, .T. ) ;
#382 = AXIS2_PLACEMENT_3D ( 'NONE', #308, #249, #94 ) ;
#383 = ORIENTED_EDGE ( 'NONE', *, *, #229, .F. ) ;
#384 = CYLINDRICAL_SURFACE ( 'NONE', #382, 4.999999999999999100 ) ;
#385 = CALENDAR_DATE ( 2023, 12, 7 ) ;
#386 = DIRECTION ( 'NONE',  ( 1.000000000000000000, 1.193131631831312900E-016, -0.0000000000000000000 ) ) ;
#387 = FACE_OUTER_BOUND ( 'NONE', #293, .T. ) ;
#388 = ORIENTED_EDGE ( 'NONE', *, *, #146, .F. ) ;
#389 = DIRECTION ( 'NONE',  ( 1.000000000000000000, 1.193131631831312900E-016, -0.0000000000000000000 ) ) ;
#390 = DIRECTION ( 'NONE',  ( -1.000000000000000000, -1.193131631831312900E-016, 0.0000000000000000000 ) ) ;
#391 = LINE ( 'NONE', #126, #326 ) ;
#392 = DIRECTION ( 'NONE',  ( 1.000000000000000000, 1.193131631831312900E-016, -0.0000000000000000000 ) ) ;
#393 = CLOSED_SHELL ( 'NONE', ( #395, #215, #25, #188, #92, #280, #57, #125, #309, #369 ) ) ;
#394 = CARTESIAN_POINT ( 'NONE',  ( 39.00000000000000000, 0.0000000000000000000, 0.0000000000000000000 ) ) ;
#395 = ADVANCED_FACE ( 'NONE', ( #75 ), #52, .T. ) ;
#396 = PERSON_AND_ORGANIZATION ( #376, #121 ) ;
#397 = DIRECTION ( 'NONE',  ( 0.0000000000000000000, 1.000000000000000000, 0.0000000000000000000 ) ) ;
#398 = CC_DESIGN_DATE_AND_TIME_ASSIGNMENT ( #257, #353, ( #318 ) ) ;
#399 = LINE ( 'NONE', #18, #332 ) ;
#400 = CARTESIAN_POINT ( 'NONE',  ( 0.0000000000000000000, 0.0000000000000000000, 0.0000000000000000000 ) ) ;
#401 = EDGE_LOOP ( 'NONE', ( #149, #345, #129, #163 ) ) ;
#402 = CARTESIAN_POINT ( 'NONE',  ( 0.0000000000000000000, 0.0000000000000000000, 4.000000000000003600 ) ) ;
#403 = DIRECTION ( 'NONE',  ( 0.0000000000000000000, 0.0000000000000000000, 1.000000000000000000 ) ) ;
#404 = VECTOR ( 'NONE', #161, 1000.000000000000000 ) ;
#405 = PRODUCT_RELATED_PRODUCT_CATEGORY ( 'detail', '', ( #200 ) ) ;
#406 = ORIENTED_EDGE ( 'NONE', *, *, #254, .F. ) ;
#407 = AXIS2_PLACEMENT_3D ( 'NONE', #394, #219, #32 ) ;
#408 = COORDINATED_UNIVERSAL_TIME_OFFSET ( 9, 0, .AHEAD. ) ;
#409 = FACE_OUTER_BOUND ( 'NONE', #401, .T. ) ;
#410 = EDGE_LOOP ( 'NONE', ( #83, #33 ) ) ;
#411 = PERSON_AND_ORGANIZATION_ROLE ( 'design_supplier' ) ;
#412 = CIRCLE ( 'NONE', #407, 4.000000000000007100 ) ;
#413 = CARTESIAN_POINT ( 'NONE',  ( -0.9999999999999965600, -2.386263263662621400E-016, 0.0000000000000000000 ) ) ;
ENDSEC;
END-ISO-10303-21;
