ISO-10303-21;
HEADER;
FILE_DESCRIPTION (( 'STEP AP214' ),
    '1' );
FILE_NAME ('K410100950.STEP',
    '2018-02-07T06:56:30',
    ( '' ),
    ( '' ),
    'SwSTEP 2.0',
    'SolidWorks 2014',
    '' );
FILE_SCHEMA (( 'AUTOMOTIVE_DESIGN' ));
ENDSEC;

DATA;
#1 = DIRECTION ( 'NONE',  ( -1.000000000000000000, -0.0000000000000000000, -0.0000000000000000000 ) ) ;
#2 = FACE_OUTER_BOUND ( 'NONE', #161, .T. ) ;
#3 = FACE_OUTER_BOUND ( 'NONE', #113, .T. ) ;
#4 = DIRECTION ( 'NONE',  ( 0.0000000000000000000, -1.000000000000000000, 0.0000000000000000000 ) ) ;
#5 = ADVANCED_FACE ( 'NONE', ( #269 ), #14, .T. ) ;
#6 =( NAMED_UNIT ( * ) PLANE_ANGLE_UNIT ( ) SI_UNIT ( $, .RADIAN. ) );
#7 = AXIS2_PLACEMENT_3D ( 'NONE', #227, #326, #39 ) ;
#8 = FACE_OUTER_BOUND ( 'NONE', #32, .T. ) ;
#9 = CARTESIAN_POINT ( 'NONE',  ( 89.00000000000000000, -4.750000000000002700, 0.0000000000000000000 ) ) ;
#10 = CLOSED_SHELL ( 'NONE', ( #320, #185, #303, #311, #339, #246, #77, #5 ) ) ;
#11 = EDGE_CURVE ( 'NONE', #250, #206, #211, .T. ) ;
#12 = CARTESIAN_POINT ( 'NONE',  ( 0.0000000000000000000, 0.0000000000000000000, 0.0000000000000000000 ) ) ;
#13 = AXIS2_PLACEMENT_3D ( 'NONE', #263, #241, #236 ) ;
#14 = CYLINDRICAL_SURFACE ( 'NONE', #61, 5.000000000000002700 ) ;
#15 = FILL_AREA_STYLE_COLOUR ( '', #316 ) ;
#16 = CARTESIAN_POINT ( 'NONE',  ( 89.00000000000000000, 1.931872131624294300E-036, 0.0000000000000000000 ) ) ;
#17 = DIRECTION ( 'NONE',  ( -0.7071067811865507900, 0.0000000000000000000, 0.7071067811865441300 ) ) ;
#18 = DIRECTION ( 'NONE',  ( -1.000000000000000000, -0.0000000000000000000, -0.0000000000000000000 ) ) ;
#19 = ORIENTED_EDGE ( 'NONE', *, *, #307, .T. ) ;
#20 = DIRECTION ( 'NONE',  ( -1.000000000000000000, -0.0000000000000000000, -0.0000000000000000000 ) ) ;
#21 = AXIS2_PLACEMENT_3D ( 'NONE', #116, #332, #72 ) ;
#22 = EDGE_CURVE ( 'NONE', #230, #33, #278, .T. ) ;
#23 = COLOUR_RGB ( '',0.5019607843137254800, 0.5019607843137254800, 0.5019607843137254800 ) ;
#24 = PRESENTATION_STYLE_ASSIGNMENT (( #239 ) ) ;
#25 = VERTEX_POINT ( 'NONE', #55 ) ;
#26 = PRESENTATION_LAYER_ASSIGNMENT (  '', '', ( #204 ) ) ;
#27 = CARTESIAN_POINT ( 'NONE',  ( 89.00000000000000000, 4.750000000000002700, 5.817072295949931400E-016 ) ) ;
#28 = LINE ( 'NONE', #149, #208 ) ;
#29 = ORIENTED_EDGE ( 'NONE', *, *, #177, .T. ) ;
#30 = DIRECTION ( 'NONE',  ( 0.0000000000000000000, 0.0000000000000000000, 1.000000000000000000 ) ) ;
#31 =( GEOMETRIC_REPRESENTATION_CONTEXT ( 3 ) GLOBAL_UNCERTAINTY_ASSIGNED_CONTEXT ( ( #252 ) ) GLOBAL_UNIT_ASSIGNED_CONTEXT ( ( #97, #298, #169 ) ) REPRESENTATION_CONTEXT ( 'NONE', 'WORKASPACE' ) );
#32 = EDGE_LOOP ( 'NONE', ( #213, #341, #291, #215 ) ) ;
#33 = VERTEX_POINT ( 'NONE', #237 ) ;
#34 = DIRECTION ( 'NONE',  ( 0.0000000000000000000, 0.0000000000000000000, 1.000000000000000000 ) ) ;
#35 = AXIS2_PLACEMENT_3D ( 'NONE', #95, #18, #127 ) ;
#36 = DIRECTION ( 'NONE',  ( -1.000000000000000000, -0.0000000000000000000, -0.0000000000000000000 ) ) ;
#37 = ORIENTED_EDGE ( 'NONE', *, *, #194, .T. ) ;
#38 = CARTESIAN_POINT ( 'NONE',  ( 89.00000000000000000, 0.0000000000000000000, 4.349999999999999600 ) ) ;
#39 = DIRECTION ( 'NONE',  ( -0.0000000000000000000, 0.0000000000000000000, 1.000000000000000000 ) ) ;
#40 = FACE_OUTER_BOUND ( 'NONE', #272, .T. ) ;
#41 = EDGE_LOOP ( 'NONE', ( #80, #100, #85, #181 ) ) ;
#42 = FILL_AREA_STYLE ('',( #15 ) ) ;
#43 = ADVANCED_FACE ( 'NONE', ( #255 ), #188, .F. ) ;
#44 = FACE_OUTER_BOUND ( 'NONE', #231, .T. ) ;
#45 = EDGE_LOOP ( 'NONE', ( #130, #238, #106, #301 ) ) ;
#46 = AXIS2_PLACEMENT_3D ( 'NONE', #293, #166, #168 ) ;
#47 = CYLINDRICAL_SURFACE ( 'NONE', #157, 4.750000000000002700 ) ;
#48 = ORIENTED_EDGE ( 'NONE', *, *, #159, .T. ) ;
#49 = DIRECTION ( 'NONE',  ( -6.377381299931970400E-019, -1.000000000000000000, 0.0000000000000000000 ) ) ;
#50 = EDGE_LOOP ( 'NONE', ( #195, #131 ) ) ;
#51 = AXIS2_PLACEMENT_3D ( 'NONE', #147, #319, #91 ) ;
#52 = DIRECTION ( 'NONE',  ( 0.0000000000000000000, 0.0000000000000000000, 1.000000000000000000 ) ) ;
#53 = DIRECTION ( 'NONE',  ( -1.000000000000000000, -0.0000000000000000000, -0.0000000000000000000 ) ) ;
#54 = EDGE_CURVE ( 'NONE', #33, #250, #94, .T. ) ;
#55 = CARTESIAN_POINT ( 'NONE',  ( 89.00000000000000000, 4.750000000000000000, 5.817072295949930400E-016 ) ) ;
#56 = CIRCLE ( 'NONE', #46, 5.000000000000005300 ) ;
#57 = CIRCLE ( 'NONE', #297, 5.000000000000000000 ) ;
#58 = CARTESIAN_POINT ( 'NONE',  ( 0.0000000000000000000, 6.123233995736770200E-016, -5.000000000000002700 ) ) ;
#59 = ORIENTED_EDGE ( 'NONE', *, *, #280, .T. ) ;
#60 = CARTESIAN_POINT ( 'NONE',  ( 89.00000000000000000, 4.750000000000000000, 0.0000000000000000000 ) ) ;
#61 = AXIS2_PLACEMENT_3D ( 'NONE', #240, #1, #317 ) ;
#62 = SURFACE_SIDE_STYLE ('',( #338 ) ) ;
#63 = ORIENTED_EDGE ( 'NONE', *, *, #11, .F. ) ;
#64 = ORIENTED_EDGE ( 'NONE', *, *, #285, .F. ) ;
#65 = SURFACE_STYLE_USAGE ( .BOTH. , #62 ) ;
#66 =( NAMED_UNIT ( * ) SI_UNIT ( $, .STERADIAN. ) SOLID_ANGLE_UNIT ( ) );
#67 = ADVANCED_BREP_SHAPE_REPRESENTATION ( 'K410100950', ( #114, #202, #78 ), #31 ) ;
#68 = CIRCLE ( 'NONE', #135, 4.750000000000000000 ) ;
#69 = PLANE ( 'NONE',  #7 ) ;
#70 = VECTOR ( 'NONE', #264, 1000.000000000000000 ) ;
#71 = AXIS2_PLACEMENT_3D ( 'NONE', #60, #271, #115 ) ;
#72 = DIRECTION ( 'NONE',  ( 0.0000000000000000000, 0.0000000000000000000, 1.000000000000000000 ) ) ;
#73 = DIRECTION ( 'NONE',  ( 1.000000000000000000, 0.0000000000000000000, 0.0000000000000000000 ) ) ;
#74 = AXIS2_PLACEMENT_3D ( 'NONE', #140, #214, #49 ) ;
#75 = LINE ( 'NONE', #9, #111 ) ;
#76 = APPLICATION_CONTEXT ( 'automotive_design' ) ;
#77 = ADVANCED_FACE ( 'NONE', ( #8 ), #234, .T. ) ;
#78 = AXIS2_PLACEMENT_3D ( 'NONE', #253, #276, #232 ) ;
#79 = ORIENTED_EDGE ( 'NONE', *, *, #212, .F. ) ;
#80 = ORIENTED_EDGE ( 'NONE', *, *, #274, .T. ) ;
#81 = DIRECTION ( 'NONE',  ( -1.000000000000000000, -0.0000000000000000000, -0.0000000000000000000 ) ) ;
#82 = DIRECTION ( 'NONE',  ( -1.000000000000000000, 6.377381299931970400E-019, -0.0000000000000000000 ) ) ;
#83 = CARTESIAN_POINT ( 'NONE',  ( 89.00000000000000000, -4.750000000000000000, 0.0000000000000000000 ) ) ;
#84 = CYLINDRICAL_SURFACE ( 'NONE', #160, 4.750000000000002700 ) ;
#85 = ORIENTED_EDGE ( 'NONE', *, *, #207, .F. ) ;
#86 =( LENGTH_UNIT ( ) NAMED_UNIT ( * ) SI_UNIT ( .MILLI., .METRE. ) );
#87 = MECHANICAL_DESIGN_GEOMETRIC_PRESENTATION_REPRESENTATION (  '', ( #182 ), #306 ) ;
#88 = CYLINDRICAL_SURFACE ( 'NONE', #315, 4.349999999999999600 ) ;
#89 =( LENGTH_UNIT ( ) NAMED_UNIT ( * ) SI_UNIT ( .MILLI., .METRE. ) );
#90 = VERTEX_POINT ( 'NONE', #216 ) ;
#91 = DIRECTION ( 'NONE',  ( 0.0000000000000000000, -1.000000000000000000, 0.0000000000000000000 ) ) ;
#92 = AXIS2_PLACEMENT_3D ( 'NONE', #110, #288, #4 ) ;
#93 = DIRECTION ( 'NONE',  ( 0.0000000000000000000, 0.0000000000000000000, 1.000000000000000000 ) ) ;
#94 = LINE ( 'NONE', #270, #112 ) ;
#95 = CARTESIAN_POINT ( 'NONE',  ( 0.0000000000000000000, 0.0000000000000000000, 0.0000000000000000000 ) ) ;
#96 = APPLICATION_PROTOCOL_DEFINITION ( 'draft international standard', 'automotive_design', 1998, #199 ) ;
#97 =( LENGTH_UNIT ( ) NAMED_UNIT ( * ) SI_UNIT ( .MILLI., .METRE. ) );
#98 = SURFACE_SIDE_STYLE ('',( #139 ) ) ;
#99 = ORIENTED_EDGE ( 'NONE', *, *, #104, .F. ) ;
#100 = ORIENTED_EDGE ( 'NONE', *, *, #11, .T. ) ;
#101 = DIRECTION ( 'NONE',  ( 0.0000000000000000000, -1.000000000000000000, 0.0000000000000000000 ) ) ;
#102 = EDGE_CURVE ( 'NONE', #296, #330, #152, .T. ) ;
#103 = CIRCLE ( 'NONE', #299, 4.750000000000004400 ) ;
#104 = EDGE_CURVE ( 'NONE', #145, #25, #219, .T. ) ;
#105 = AXIS2_PLACEMENT_3D ( 'NONE', #312, #193, #218 ) ;
#106 = ORIENTED_EDGE ( 'NONE', *, *, #212, .T. ) ;
#107 = DIRECTION ( 'NONE',  ( -0.7071067811865507900, 8.659560562354892200E-017, -0.7071067811865441300 ) ) ;
#108 = CARTESIAN_POINT ( 'NONE',  ( 125.0000000000000000, -4.750000000000004400, 0.0000000000000000000 ) ) ;
#109 = DIRECTION ( 'NONE',  ( 0.0000000000000000000, -1.000000000000000000, 0.0000000000000000000 ) ) ;
#110 = CARTESIAN_POINT ( 'NONE',  ( 89.00000000000000000, 1.931872131624294300E-036, 0.0000000000000000000 ) ) ;
#111 = VECTOR ( 'NONE', #324, 1000.000000000000000 ) ;
#112 = VECTOR ( 'NONE', #107, 1000.000000000000100 ) ;
#113 = EDGE_LOOP ( 'NONE', ( #256, #167, #279, #133 ) ) ;
#114 = MANIFOLD_SOLID_BREP ( '¹Ùµð', #10 ) ;
#115 = DIRECTION ( 'NONE',  ( 6.377381299931970400E-019, 1.000000000000000000, 0.0000000000000000000 ) ) ;
#116 = CARTESIAN_POINT ( 'NONE',  ( 89.00000000000000000, 0.0000000000000000000, 0.0000000000000000000 ) ) ;
#117 = FACE_OUTER_BOUND ( 'NONE', #318, .T. ) ;
#118 = PLANE ( 'NONE',  #71 ) ;
#119 = EDGE_CURVE ( 'NONE', #124, #25, #156, .T. ) ;
#120 = ORIENTED_EDGE ( 'NONE', *, *, #280, .F. ) ;
#121 = DIRECTION ( 'NONE',  ( -1.000000000000000000, -0.0000000000000000000, -0.0000000000000000000 ) ) ;
#122 = SURFACE_STYLE_USAGE ( .BOTH. , #98 ) ;
#123 = DIRECTION ( 'NONE',  ( 0.0000000000000000000, 0.0000000000000000000, -1.000000000000000000 ) ) ;
#124 = VERTEX_POINT ( 'NONE', #343 ) ;
#125 = DIRECTION ( 'NONE',  ( 0.0000000000000000000, -1.000000000000000000, 0.0000000000000000000 ) ) ;
#126 = PRESENTATION_LAYER_ASSIGNMENT (  '', '', ( #148 ) ) ;
#127 = DIRECTION ( 'NONE',  ( 0.0000000000000000000, 0.0000000000000000000, 1.000000000000000000 ) ) ;
#128 = DIRECTION ( 'NONE',  ( 0.0000000000000000000, 0.0000000000000000000, 1.000000000000000000 ) ) ;
#129 = APPLICATION_PROTOCOL_DEFINITION ( 'draft international standard', 'automotive_design', 1998, #76 ) ;
#130 = ORIENTED_EDGE ( 'NONE', *, *, #119, .F. ) ;
#131 = ORIENTED_EDGE ( 'NONE', *, *, #334, .F. ) ;
#132 = PRODUCT_DEFINITION_CONTEXT ( 'detailed design', #76, 'design' ) ;
#133 = ORIENTED_EDGE ( 'NONE', *, *, #342, .F. ) ;
#134 = CLOSED_SHELL ( 'NONE', ( #210, #190, #43, #136 ) ) ;
#135 = AXIS2_PLACEMENT_3D ( 'NONE', #16, #257, #101 ) ;
#136 = ADVANCED_FACE ( 'NONE', ( #242 ), #47, .T. ) ;
#137 = VECTOR ( 'NONE', #81, 1000.000000000000000 ) ;
#138 = DIRECTION ( 'NONE',  ( -1.000000000000000000, -0.0000000000000000000, -0.0000000000000000000 ) ) ;
#139 = SURFACE_STYLE_FILL_AREA ( #42 ) ;
#140 = CARTESIAN_POINT ( 'NONE',  ( 125.0000000000000000, -2.295857267975509600E-017, 0.0000000000000000000 ) ) ;
#141 =( NAMED_UNIT ( * ) PLANE_ANGLE_UNIT ( ) SI_UNIT ( $, .RADIAN. ) );
#142 = PRODUCT_DEFINITION_FORMATION_WITH_SPECIFIED_SOURCE ( 'ANY', '', #180, .NOT_KNOWN. ) ;
#143 = DIRECTION ( 'NONE',  ( -1.000000000000000000, -0.0000000000000000000, -0.0000000000000000000 ) ) ;
#144 = EDGE_LOOP ( 'NONE', ( #305, #155, #187, #64 ) ) ;
#145 = VERTEX_POINT ( 'NONE', #83 ) ;
#146 = DIRECTION ( 'NONE',  ( -1.000000000000000000, 6.377381299931970400E-019, -0.0000000000000000000 ) ) ;
#147 = CARTESIAN_POINT ( 'NONE',  ( 125.0000000000000000, -2.295857267975509600E-017, 0.0000000000000000000 ) ) ;
#148 = STYLED_ITEM ( 'NONE', ( #24 ), #114 ) ;
#149 = CARTESIAN_POINT ( 'NONE',  ( 0.0000000000000000000, 5.327213576290986200E-016, -4.349999999999999600 ) ) ;
#150 = CYLINDRICAL_SURFACE ( 'NONE', #283, 4.349999999999999600 ) ;
#151 = CARTESIAN_POINT ( 'NONE',  ( 125.0000000000000000, -2.295857267975509600E-017, 0.0000000000000000000 ) ) ;
#152 = CIRCLE ( 'NONE', #13, 4.349999999999999600 ) ;
#153 = CARTESIAN_POINT ( 'NONE',  ( 0.0000000000000000000, 0.0000000000000000000, 0.0000000000000000000 ) ) ;
#154 = EDGE_LOOP ( 'NONE', ( #29, #165, #99, #79 ) ) ;
#155 = ORIENTED_EDGE ( 'NONE', *, *, #102, .T. ) ;
#156 = LINE ( 'NONE', #27, #70 ) ;
#157 = AXIS2_PLACEMENT_3D ( 'NONE', #162, #82, #109 ) ;
#158 = SHAPE_DEFINITION_REPRESENTATION ( #170, #67 ) ;
#159 = EDGE_CURVE ( 'NONE', #175, #90, #275, .T. ) ;
#160 = AXIS2_PLACEMENT_3D ( 'NONE', #243, #146, #221 ) ;
#161 = EDGE_LOOP ( 'NONE', ( #59, #329, #244, #259 ) ) ;
#162 = CARTESIAN_POINT ( 'NONE',  ( 89.00000000000000000, 0.0000000000000000000, 0.0000000000000000000 ) ) ;
#163 = SURFACE_SIDE_STYLE ('',( #290 ) ) ;
#164 = CARTESIAN_POINT ( 'NONE',  ( 44.34999999999998700, 0.0000000000000000000, 0.0000000000000000000 ) ) ;
#165 = ORIENTED_EDGE ( 'NONE', *, *, #119, .T. ) ;
#166 = DIRECTION ( 'NONE',  ( -1.000000000000000000, -0.0000000000000000000, -0.0000000000000000000 ) ) ;
#167 = ORIENTED_EDGE ( 'NONE', *, *, #54, .T. ) ;
#168 = DIRECTION ( 'NONE',  ( 0.0000000000000000000, 0.0000000000000000000, 1.000000000000000000 ) ) ;
#169 =( NAMED_UNIT ( * ) SI_UNIT ( $, .STERADIAN. ) SOLID_ANGLE_UNIT ( ) );
#170 = PRODUCT_DEFINITION_SHAPE ( 'NONE', 'NONE',  #245 ) ;
#171 = CARTESIAN_POINT ( 'NONE',  ( 0.0000000000000000000, 5.000000000000000000, 0.0000000000000000000 ) ) ;
#172 = DIRECTION ( 'NONE',  ( 0.0000000000000000000, 0.0000000000000000000, 1.000000000000000000 ) ) ;
#173 = AXIS2_PLACEMENT_3D ( 'NONE', #176, #20, #277 ) ;
#174 = CIRCLE ( 'NONE', #265, 5.000000000000005300 ) ;
#175 = VERTEX_POINT ( 'NONE', #321 ) ;
#176 = CARTESIAN_POINT ( 'NONE',  ( 45.00000000000000000, 0.0000000000000000000, 0.0000000000000000000 ) ) ;
#177 = EDGE_CURVE ( 'NONE', #184, #124, #200, .T. ) ;
#178 = DIRECTION ( 'NONE',  ( -1.000000000000000000, -0.0000000000000000000, -0.0000000000000000000 ) ) ;
#179 = LINE ( 'NONE', #251, #327 ) ;
#180 = PRODUCT ( 'K410100950', 'K410100950', '', ( #203 ) ) ;
#181 = ORIENTED_EDGE ( 'NONE', *, *, #159, .F. ) ;
#182 = STYLED_ITEM ( 'NONE', ( #267 ), #67 ) ;
#183 = CIRCLE ( 'NONE', #21, 4.349999999999999600 ) ;
#184 = VERTEX_POINT ( 'NONE', #108 ) ;
#185 = ADVANCED_FACE ( 'NONE', ( #3 ), #300, .T. ) ;
#186 = AXIS2_PLACEMENT_3D ( 'NONE', #287, #217, #52 ) ;
#187 = ORIENTED_EDGE ( 'NONE', *, *, #223, .T. ) ;
#188 = PLANE ( 'NONE',  #74 ) ;
#189 = UNCERTAINTY_MEASURE_WITH_UNIT (LENGTH_MEASURE( 1.000000000000000100E-005 ), #89, 'distance_accuracy_value', 'NONE');
#190 = ADVANCED_FACE ( 'NONE', ( #40 ), #118, .F. ) ;
#191 =( NAMED_UNIT ( * ) SI_UNIT ( $, .STERADIAN. ) SOLID_ANGLE_UNIT ( ) );
#192 = PRODUCT_RELATED_PRODUCT_CATEGORY ( 'part', '', ( #180 ) ) ;
#193 = DIRECTION ( 'NONE',  ( -1.000000000000000000, -0.0000000000000000000, -0.0000000000000000000 ) ) ;
#194 = EDGE_CURVE ( 'NONE', #250, #175, #174, .T. ) ;
#195 = ORIENTED_EDGE ( 'NONE', *, *, #177, .F. ) ;
#196 = CARTESIAN_POINT ( 'NONE',  ( 0.0000000000000000000, 6.123233995736769200E-016, -5.000000000000000000 ) ) ;
#197 = AXIS2_PLACEMENT_3D ( 'NONE', #171, #73, #123 ) ;
#198 = CARTESIAN_POINT ( 'NONE',  ( 89.00000000000000000, 5.327213576290986200E-016, -4.349999999999999600 ) ) ;
#199 = APPLICATION_CONTEXT ( 'automotive_design' ) ;
#200 = CIRCLE ( 'NONE', #51, 4.750000000000004400 ) ;
#201 = DIRECTION ( 'NONE',  ( -1.000000000000000000, -0.0000000000000000000, -0.0000000000000000000 ) ) ;
#202 = MANIFOLD_SOLID_BREP ( 'O.D.', #134 ) ;
#203 = PRODUCT_CONTEXT ( 'NONE', #199, 'mechanical' ) ;
#204 = STYLED_ITEM ( 'NONE', ( #304 ), #202 ) ;
#205 = ORIENTED_EDGE ( 'NONE', *, *, #207, .T. ) ;
#206 = VERTEX_POINT ( 'NONE', #196 ) ;
#207 = EDGE_CURVE ( 'NONE', #90, #206, #57, .T. ) ;
#208 = VECTOR ( 'NONE', #220, 1000.000000000000000 ) ;
#209 = VECTOR ( 'NONE', #53, 1000.000000000000000 ) ;
#210 = ADVANCED_FACE ( 'NONE', ( #229 ), #84, .T. ) ;
#211 = LINE ( 'NONE', #58, #137 ) ;
#212 = EDGE_CURVE ( 'NONE', #184, #145, #75, .T. ) ;
#213 = ORIENTED_EDGE ( 'NONE', *, *, #54, .F. ) ;
#214 = DIRECTION ( 'NONE',  ( -1.000000000000000000, 6.377381299931970400E-019, 0.0000000000000000000 ) ) ;
#215 = ORIENTED_EDGE ( 'NONE', *, *, #194, .F. ) ;
#216 = CARTESIAN_POINT ( 'NONE',  ( 0.0000000000000000000, 0.0000000000000000000, 5.000000000000000000 ) ) ;
#217 = DIRECTION ( 'NONE',  ( -1.000000000000000000, -0.0000000000000000000, -0.0000000000000000000 ) ) ;
#218 = DIRECTION ( 'NONE',  ( 0.0000000000000000000, 0.0000000000000000000, 1.000000000000000000 ) ) ;
#219 = CIRCLE ( 'NONE', #92, 4.750000000000000000 ) ;
#220 = DIRECTION ( 'NONE',  ( -1.000000000000000000, -0.0000000000000000000, -0.0000000000000000000 ) ) ;
#221 = DIRECTION ( 'NONE',  ( 0.0000000000000000000, -1.000000000000000000, 0.0000000000000000000 ) ) ;
#222 =( NAMED_UNIT ( * ) SI_UNIT ( $, .STERADIAN. ) SOLID_ANGLE_UNIT ( ) );
#223 = EDGE_CURVE ( 'NONE', #330, #230, #179, .T. ) ;
#224 =( LENGTH_UNIT ( ) NAMED_UNIT ( * ) SI_UNIT ( .MILLI., .METRE. ) );
#225 = UNCERTAINTY_MEASURE_WITH_UNIT (LENGTH_MEASURE( 1.000000000000000100E-005 ), #224, 'distance_accuracy_value', 'NONE');
#226 = CARTESIAN_POINT ( 'NONE',  ( 45.00000000000000000, 0.0000000000000000000, 4.349999999999999600 ) ) ;
#227 = CARTESIAN_POINT ( 'NONE',  ( 89.00000000000000000, 4.349999999999999600, 0.0000000000000000000 ) ) ;
#228 =( GEOMETRIC_REPRESENTATION_CONTEXT ( 3 ) GLOBAL_UNCERTAINTY_ASSIGNED_CONTEXT ( ( #302 ) ) GLOBAL_UNIT_ASSIGNED_CONTEXT ( ( #86, #141, #191 ) ) REPRESENTATION_CONTEXT ( 'NONE', 'WORKASPACE' ) );
#229 = FACE_OUTER_BOUND ( 'NONE', #154, .T. ) ;
#230 = VERTEX_POINT ( 'NONE', #249 ) ;
#231 = EDGE_LOOP ( 'NONE', ( #205, #19 ) ) ;
#232 = DIRECTION ( 'NONE',  ( 1.000000000000000000, 0.0000000000000000000, 0.0000000000000000000 ) ) ;
#233 = CYLINDRICAL_SURFACE ( 'NONE', #268, 5.000000000000002700 ) ;
#234 = CONICAL_SURFACE ( 'NONE', #186, 4.349999999999999600, 0.7853981633974437300 ) ;
#235 = EDGE_LOOP ( 'NONE', ( #63, #37, #48, #262 ) ) ;
#236 = DIRECTION ( 'NONE',  ( 0.0000000000000000000, 0.0000000000000000000, 1.000000000000000000 ) ) ;
#237 = CARTESIAN_POINT ( 'NONE',  ( 45.00000000000000000, 5.327213576290986200E-016, -4.349999999999999600 ) ) ;
#238 = ORIENTED_EDGE ( 'NONE', *, *, #334, .T. ) ;
#239 = SURFACE_STYLE_USAGE ( .BOTH. , #163 ) ;
#240 = CARTESIAN_POINT ( 'NONE',  ( 0.0000000000000000000, 0.0000000000000000000, 0.0000000000000000000 ) ) ;
#241 = DIRECTION ( 'NONE',  ( -1.000000000000000000, -0.0000000000000000000, -0.0000000000000000000 ) ) ;
#242 = FACE_OUTER_BOUND ( 'NONE', #45, .T. ) ;
#243 = CARTESIAN_POINT ( 'NONE',  ( 89.00000000000000000, 0.0000000000000000000, 0.0000000000000000000 ) ) ;
#244 = ORIENTED_EDGE ( 'NONE', *, *, #22, .F. ) ;
#245 = PRODUCT_DEFINITION ( 'UNKNOWN', '', #142, #132 ) ;
#246 = ADVANCED_FACE ( 'NONE', ( #282 ), #88, .T. ) ;
#247 = FILL_AREA_STYLE ('',( #322 ) ) ;
#248 = CARTESIAN_POINT ( 'NONE',  ( 44.34999999999998700, 6.123233995736773200E-016, -5.000000000000005300 ) ) ;
#249 = CARTESIAN_POINT ( 'NONE',  ( 45.00000000000000000, 0.0000000000000000000, 4.349999999999999600 ) ) ;
#250 = VERTEX_POINT ( 'NONE', #248 ) ;
#251 = CARTESIAN_POINT ( 'NONE',  ( 0.0000000000000000000, 0.0000000000000000000, 4.349999999999999600 ) ) ;
#252 = UNCERTAINTY_MEASURE_WITH_UNIT (LENGTH_MEASURE( 1.000000000000000100E-005 ), #97, 'distance_accuracy_value', 'NONE');
#253 = CARTESIAN_POINT ( 'NONE',  ( 0.0000000000000000000, 0.0000000000000000000, 0.0000000000000000000 ) ) ;
#254 = CARTESIAN_POINT ( 'NONE',  ( 0.0000000000000000000, 0.0000000000000000000, 0.0000000000000000000 ) ) ;
#255 = FACE_OUTER_BOUND ( 'NONE', #50, .T. ) ;
#256 = ORIENTED_EDGE ( 'NONE', *, *, #22, .T. ) ;
#257 = DIRECTION ( 'NONE',  ( -1.000000000000000000, 6.377381299931970400E-019, -0.0000000000000000000 ) ) ;
#258 = CIRCLE ( 'NONE', #35, 5.000000000000000000 ) ;
#259 = ORIENTED_EDGE ( 'NONE', *, *, #223, .F. ) ;
#260 = EDGE_CURVE ( 'NONE', #296, #33, #28, .T. ) ;
#261 = FACE_OUTER_BOUND ( 'NONE', #41, .T. ) ;
#262 = ORIENTED_EDGE ( 'NONE', *, *, #307, .F. ) ;
#263 = CARTESIAN_POINT ( 'NONE',  ( 89.00000000000000000, 0.0000000000000000000, 0.0000000000000000000 ) ) ;
#264 = DIRECTION ( 'NONE',  ( -1.000000000000000000, 6.377381299931970400E-019, -0.0000000000000000000 ) ) ;
#265 = AXIS2_PLACEMENT_3D ( 'NONE', #164, #143, #93 ) ;
#266 = CARTESIAN_POINT ( 'NONE',  ( 45.00000000000000000, 0.0000000000000000000, 0.0000000000000000000 ) ) ;
#267 = PRESENTATION_STYLE_ASSIGNMENT (( #122 ) ) ;
#268 = AXIS2_PLACEMENT_3D ( 'NONE', #153, #178, #172 ) ;
#269 = FACE_OUTER_BOUND ( 'NONE', #235, .T. ) ;
#270 = CARTESIAN_POINT ( 'NONE',  ( 45.00000000000000000, 5.327213576290986200E-016, -4.349999999999999600 ) ) ;
#271 = DIRECTION ( 'NONE',  ( 1.000000000000000000, -6.377381299931970400E-019, 0.0000000000000000000 ) ) ;
#272 = EDGE_LOOP ( 'NONE', ( #286, #310 ) ) ;
#273 = CARTESIAN_POINT ( 'NONE',  ( 0.0000000000000000000, 0.0000000000000000000, 0.0000000000000000000 ) ) ;
#274 = EDGE_CURVE ( 'NONE', #175, #250, #56, .T. ) ;
#275 = LINE ( 'NONE', #284, #209 ) ;
#276 = DIRECTION ( 'NONE',  ( 0.0000000000000000000, 0.0000000000000000000, 1.000000000000000000 ) ) ;
#277 = DIRECTION ( 'NONE',  ( 0.0000000000000000000, 0.0000000000000000000, 1.000000000000000000 ) ) ;
#278 = CIRCLE ( 'NONE', #281, 4.349999999999999600 ) ;
#279 = ORIENTED_EDGE ( 'NONE', *, *, #274, .F. ) ;
#280 = EDGE_CURVE ( 'NONE', #330, #296, #183, .T. ) ;
#281 = AXIS2_PLACEMENT_3D ( 'NONE', #266, #138, #30 ) ;
#282 = FACE_OUTER_BOUND ( 'NONE', #144, .T. ) ;
#283 = AXIS2_PLACEMENT_3D ( 'NONE', #254, #201, #128 ) ;
#284 = CARTESIAN_POINT ( 'NONE',  ( 0.0000000000000000000, 0.0000000000000000000, 5.000000000000002700 ) ) ;
#285 = EDGE_CURVE ( 'NONE', #33, #230, #294, .T. ) ;
#286 = ORIENTED_EDGE ( 'NONE', *, *, #104, .T. ) ;
#287 = CARTESIAN_POINT ( 'NONE',  ( 45.00000000000000000, 0.0000000000000000000, 0.0000000000000000000 ) ) ;
#288 = DIRECTION ( 'NONE',  ( -1.000000000000000000, 6.377381299931970400E-019, -0.0000000000000000000 ) ) ;
#289 =( GEOMETRIC_REPRESENTATION_CONTEXT ( 3 ) GLOBAL_UNCERTAINTY_ASSIGNED_CONTEXT ( ( #189 ) ) GLOBAL_UNIT_ASSIGNED_CONTEXT ( ( #89, #6, #222 ) ) REPRESENTATION_CONTEXT ( 'NONE', 'WORKASPACE' ) );
#290 = SURFACE_STYLE_FILL_AREA ( #308 ) ;
#291 = ORIENTED_EDGE ( 'NONE', *, *, #342, .T. ) ;
#292 = DIRECTION ( 'NONE',  ( -1.000000000000000000, -0.0000000000000000000, -0.0000000000000000000 ) ) ;
#293 = CARTESIAN_POINT ( 'NONE',  ( 44.34999999999998700, 0.0000000000000000000, 0.0000000000000000000 ) ) ;
#294 = CIRCLE ( 'NONE', #173, 4.349999999999999600 ) ;
#295 = DIRECTION ( 'NONE',  ( 0.0000000000000000000, 0.0000000000000000000, 1.000000000000000000 ) ) ;
#296 = VERTEX_POINT ( 'NONE', #198 ) ;
#297 = AXIS2_PLACEMENT_3D ( 'NONE', #12, #36, #34 ) ;
#298 =( NAMED_UNIT ( * ) PLANE_ANGLE_UNIT ( ) SI_UNIT ( $, .RADIAN. ) );
#299 = AXIS2_PLACEMENT_3D ( 'NONE', #151, #331, #125 ) ;
#300 = CONICAL_SURFACE ( 'NONE', #105, 4.349999999999999600, 0.7853981633974437300 ) ;
#301 = ORIENTED_EDGE ( 'NONE', *, *, #325, .F. ) ;
#302 = UNCERTAINTY_MEASURE_WITH_UNIT (LENGTH_MEASURE( 1.000000000000000100E-005 ), #86, 'distance_accuracy_value', 'NONE');
#303 = ADVANCED_FACE ( 'NONE', ( #2 ), #150, .T. ) ;
#304 = PRESENTATION_STYLE_ASSIGNMENT (( #65 ) ) ;
#305 = ORIENTED_EDGE ( 'NONE', *, *, #260, .F. ) ;
#306 =( GEOMETRIC_REPRESENTATION_CONTEXT ( 3 ) GLOBAL_UNCERTAINTY_ASSIGNED_CONTEXT ( ( #225 ) ) GLOBAL_UNIT_ASSIGNED_CONTEXT ( ( #224, #333, #66 ) ) REPRESENTATION_CONTEXT ( 'NONE', 'WORKASPACE' ) );
#307 = EDGE_CURVE ( 'NONE', #206, #90, #258, .T. ) ;
#308 = FILL_AREA_STYLE ('',( #314 ) ) ;
#309 = VECTOR ( 'NONE', #17, 1000.000000000000100 ) ;
#310 = ORIENTED_EDGE ( 'NONE', *, *, #325, .T. ) ;
#311 = ADVANCED_FACE ( 'NONE', ( #44 ), #328, .F. ) ;
#312 = CARTESIAN_POINT ( 'NONE',  ( 45.00000000000000000, 0.0000000000000000000, 0.0000000000000000000 ) ) ;
#313 = PRESENTATION_LAYER_ASSIGNMENT (  '', '', ( #182 ) ) ;
#314 = FILL_AREA_STYLE_COLOUR ( '', #23 ) ;
#315 = AXIS2_PLACEMENT_3D ( 'NONE', #273, #121, #295 ) ;
#316 = COLOUR_RGB ( '',0.7921568627450980000, 0.8196078431372548800, 0.9333333333333333500 ) ;
#317 = DIRECTION ( 'NONE',  ( 0.0000000000000000000, 0.0000000000000000000, 1.000000000000000000 ) ) ;
#318 = EDGE_LOOP ( 'NONE', ( #120, #335 ) ) ;
#319 = DIRECTION ( 'NONE',  ( -1.000000000000000000, 6.377381299931970400E-019, -0.0000000000000000000 ) ) ;
#320 = ADVANCED_FACE ( 'NONE', ( #261 ), #233, .T. ) ;
#321 = CARTESIAN_POINT ( 'NONE',  ( 44.34999999999998700, 0.0000000000000000000, 5.000000000000005300 ) ) ;
#322 = FILL_AREA_STYLE_COLOUR ( '', #340 ) ;
#323 = MECHANICAL_DESIGN_GEOMETRIC_PRESENTATION_REPRESENTATION (  '', ( #204 ), #289 ) ;
#324 = DIRECTION ( 'NONE',  ( -1.000000000000000000, 6.377381299931970400E-019, -0.0000000000000000000 ) ) ;
#325 = EDGE_CURVE ( 'NONE', #25, #145, #68, .T. ) ;
#326 = DIRECTION ( 'NONE',  ( -1.000000000000000000, 0.0000000000000000000, -0.0000000000000000000 ) ) ;
#327 = VECTOR ( 'NONE', #292, 1000.000000000000000 ) ;
#328 = PLANE ( 'NONE',  #197 ) ;
#329 = ORIENTED_EDGE ( 'NONE', *, *, #260, .T. ) ;
#330 = VERTEX_POINT ( 'NONE', #38 ) ;
#331 = DIRECTION ( 'NONE',  ( -1.000000000000000000, 6.377381299931970400E-019, -0.0000000000000000000 ) ) ;
#332 = DIRECTION ( 'NONE',  ( -1.000000000000000000, -0.0000000000000000000, -0.0000000000000000000 ) ) ;
#333 =( NAMED_UNIT ( * ) PLANE_ANGLE_UNIT ( ) SI_UNIT ( $, .RADIAN. ) );
#334 = EDGE_CURVE ( 'NONE', #124, #184, #103, .T. ) ;
#335 = ORIENTED_EDGE ( 'NONE', *, *, #102, .F. ) ;
#336 = MECHANICAL_DESIGN_GEOMETRIC_PRESENTATION_REPRESENTATION (  '', ( #148 ), #228 ) ;
#337 = LINE ( 'NONE', #226, #309 ) ;
#338 = SURFACE_STYLE_FILL_AREA ( #247 ) ;
#339 = ADVANCED_FACE ( 'NONE', ( #117 ), #69, .F. ) ;
#340 = COLOUR_RGB ( '',1.000000000000000000, 1.000000000000000000, 0.0000000000000000000 ) ;
#341 = ORIENTED_EDGE ( 'NONE', *, *, #285, .T. ) ;
#342 = EDGE_CURVE ( 'NONE', #230, #175, #337, .T. ) ;
#343 = CARTESIAN_POINT ( 'NONE',  ( 125.0000000000000000, 4.750000000000004400, 5.817072295949934300E-016 ) ) ;
ENDSEC;
END-ISO-10303-21;
