ISO-10303-21;
HEADER;
FILE_DESCRIPTION (( 'STEP AP214' ),
    '1' );
FILE_NAME ('Ä¥µ¶×©.STEP',
    '2024-02-20T07:47:52',
    ( '' ),
    ( '' ),
    'SwSTEP 2.0',
    'SolidWorks 2014',
    '' );
FILE_SCHEMA (( 'AUTOMOTIVE_DESIGN' ));
ENDSEC;

DATA;
#1 = ORIENTED_EDGE ( 'NONE', *, *, #313, .T. ) ;
#2 = PRODUCT_DEFINITION ( 'Î´Öª', '', #85, #217 ) ;
#3 = CARTESIAN_POINT ( 'NONE',  ( 0.0000000000000000000, 0.0000000000000000000, 0.0000000000000000000 ) ) ;
#4 = ORIENTED_EDGE ( 'NONE', *, *, #80, .T. ) ;
#5 = LINE ( 'NONE', #169, #284 ) ;
#6 = ORIENTED_EDGE ( 'NONE', *, *, #291, .T. ) ;
#7 = DIRECTION ( 'NONE',  ( 1.000000000000000000, 0.0000000000000000000, 0.0000000000000000000 ) ) ;
#8 = DIRECTION ( 'NONE',  ( 1.000000000000000000, 0.0000000000000000000, 0.0000000000000000000 ) ) ;
#9 = DIRECTION ( 'NONE',  ( 0.0000000000000000000, 1.000000000000000000, -0.0000000000000000000 ) ) ;
#10 = PRESENTATION_STYLE_ASSIGNMENT (( #60 ) ) ;
#11 = CARTESIAN_POINT ( 'NONE',  ( 75.00000000000012800, -24.99999999999996800, 0.0000000000000000000 ) ) ;
#12 = ORIENTED_EDGE ( 'NONE', *, *, #334, .T. ) ;
#13 = DIRECTION ( 'NONE',  ( -0.0000000000000000000, -0.0000000000000000000, -1.000000000000000000 ) ) ;
#14 = CARTESIAN_POINT ( 'NONE',  ( 75.00000000000012800, -24.99999999999996800, -12.50000000000000000 ) ) ;
#15 = VECTOR ( 'NONE', #7, 1000.000000000000000 ) ;
#16 = DIRECTION ( 'NONE',  ( 0.0000000000000000000, 1.000000000000000000, 0.0000000000000000000 ) ) ;
#17 = ORIENTED_EDGE ( 'NONE', *, *, #110, .T. ) ;
#18 = DIRECTION ( 'NONE',  ( -1.000000000000000000, 0.0000000000000000000, -0.0000000000000000000 ) ) ;
#19 = EDGE_CURVE ( 'NONE', #266, #366, #96, .T. ) ;
#20 = AXIS2_PLACEMENT_3D ( 'NONE', #3, #231, #233 ) ;
#21 = DIRECTION ( 'NONE',  ( -1.000000000000000000, -0.0000000000000000000, -0.0000000000000000000 ) ) ;
#22 = DIRECTION ( 'NONE',  ( -1.000000000000000000, 0.0000000000000000000, 0.0000000000000000000 ) ) ;
#23 = FACE_OUTER_BOUND ( 'NONE', #163, .T. ) ;
#24 = EDGE_LOOP ( 'NONE', ( #365, #90, #300, #250 ) ) ;
#25 = ORIENTED_EDGE ( 'NONE', *, *, #31, .T. ) ;
#26 = CARTESIAN_POINT ( 'NONE',  ( 75.00000000000012800, 25.00000000000002100, 12.50000000000000000 ) ) ;
#27 =( NAMED_UNIT ( * ) SI_UNIT ( $, .STERADIAN. ) SOLID_ANGLE_UNIT ( ) );
#28 = DIRECTION ( 'NONE',  ( 0.0000000000000000000, 1.000000000000000000, 0.0000000000000000000 ) ) ;
#29 = EDGE_CURVE ( 'NONE', #154, #266, #342, .T. ) ;
#30 = LINE ( 'NONE', #14, #332 ) ;
#31 = EDGE_CURVE ( 'NONE', #171, #154, #201, .T. ) ;
#32 = EDGE_LOOP ( 'NONE', ( #1, #77, #124, #312 ) ) ;
#33 = LINE ( 'NONE', #79, #150 ) ;
#34 = ORIENTED_EDGE ( 'NONE', *, *, #334, .F. ) ;
#35 = PRODUCT_CONTEXT ( 'NONE', #56, 'mechanical' ) ;
#36 = FACE_OUTER_BOUND ( 'NONE', #222, .T. ) ;
#37 = CARTESIAN_POINT ( 'NONE',  ( -74.99999999999987200, 25.00000000000002100, 0.0000000000000000000 ) ) ;
#38 = VECTOR ( 'NONE', #115, 1000.000000000000000 ) ;
#39 = ORIENTED_EDGE ( 'NONE', *, *, #69, .T. ) ;
#40 = CARTESIAN_POINT ( 'NONE',  ( 75.00000000000012800, -24.99999999999996800, 0.0000000000000000000 ) ) ;
#41 =( GEOMETRIC_REPRESENTATION_CONTEXT ( 3 ) GLOBAL_UNCERTAINTY_ASSIGNED_CONTEXT ( ( #289 ) ) GLOBAL_UNIT_ASSIGNED_CONTEXT ( ( #311, #224, #144 ) ) REPRESENTATION_CONTEXT ( 'NONE', 'WORKASPACE' ) );
#42 = CARTESIAN_POINT ( 'NONE',  ( 75.00000000000012800, 25.00000000000002100, -12.50000000000000000 ) ) ;
#43 = FACE_OUTER_BOUND ( 'NONE', #196, .T. ) ;
#44 = DIRECTION ( 'NONE',  ( 0.0000000000000000000, 0.0000000000000000000, 1.000000000000000000 ) ) ;
#45 = EDGE_CURVE ( 'NONE', #361, #236, #207, .T. ) ;
#46 = AXIS2_PLACEMENT_3D ( 'NONE', #109, #47, #18 ) ;
#47 = DIRECTION ( 'NONE',  ( 0.0000000000000000000, 0.0000000000000000000, -1.000000000000000000 ) ) ;
#48 = DIRECTION ( 'NONE',  ( -0.0000000000000000000, -1.000000000000000000, -0.0000000000000000000 ) ) ;
#49 = FACE_OUTER_BOUND ( 'NONE', #24, .T. ) ;
#50 = SURFACE_STYLE_USAGE ( .BOTH. , #341 ) ;
#51 = ORIENTED_EDGE ( 'NONE', *, *, #313, .F. ) ;
#52 = PLANE ( 'NONE',  #310 ) ;
#53 = AXIS2_PLACEMENT_3D ( 'NONE', #219, #246, #137 ) ;
#54 = DIRECTION ( 'NONE',  ( -1.000000000000000000, -0.0000000000000000000, -0.0000000000000000000 ) ) ;
#55 = ADVANCED_FACE ( 'NONE', ( #57 ), #185, .F. ) ;
#56 = APPLICATION_CONTEXT ( 'automotive_design' ) ;
#57 = FACE_OUTER_BOUND ( 'NONE', #151, .T. ) ;
#58 = ADVANCED_FACE ( 'NONE', ( #43 ), #270, .F. ) ;
#59 = ORIENTED_EDGE ( 'NONE', *, *, #258, .F. ) ;
#60 = SURFACE_STYLE_USAGE ( .BOTH. , #286 ) ;
#61 = VECTOR ( 'NONE', #292, 1000.000000000000000 ) ;
#62 = EDGE_CURVE ( 'NONE', #318, #285, #209, .T. ) ;
#63 = ORIENTED_EDGE ( 'NONE', *, *, #268, .F. ) ;
#64 = EDGE_LOOP ( 'NONE', ( #179, #325, #104, #242 ) ) ;
#65 = PRODUCT ( 'Ä¥µ¶×©', 'Ä¥µ¶×©', '', ( #35 ) ) ;
#66 = AXIS2_PLACEMENT_3D ( 'NONE', #357, #160, #240 ) ;
#67 = ORIENTED_EDGE ( 'NONE', *, *, #282, .T. ) ;
#68 = VERTEX_POINT ( 'NONE', #241 ) ;
#69 = EDGE_CURVE ( 'NONE', #356, #97, #360, .T. ) ;
#70 = PLANE ( 'NONE',  #299 ) ;
#71 = CARTESIAN_POINT ( 'NONE',  ( 75.00000000000012800, -24.99999999999996800, 12.50000000000000000 ) ) ;
#72 = ORIENTED_EDGE ( 'NONE', *, *, #29, .T. ) ;
#73 = CARTESIAN_POINT ( 'NONE',  ( -74.99999999999987200, 25.00000000000002100, 0.0000000000000000000 ) ) ;
#74 = CARTESIAN_POINT ( 'NONE',  ( -74.99999999999987200, -24.99999999999996800, 12.50000000000000000 ) ) ;
#75 = DIRECTION ( 'NONE',  ( 0.0000000000000000000, -0.0000000000000000000, 1.000000000000000000 ) ) ;
#76 = LINE ( 'NONE', #359, #61 ) ;
#77 = ORIENTED_EDGE ( 'NONE', *, *, #121, .T. ) ;
#78 = ADVANCED_FACE ( 'NONE', ( #36 ), #70, .F. ) ;
#79 = CARTESIAN_POINT ( 'NONE',  ( -74.99999999999987200, 25.00000000000002100, 12.50000000000000000 ) ) ;
#80 = EDGE_CURVE ( 'NONE', #97, #168, #139, .T. ) ;
#81 =( NAMED_UNIT ( * ) PLANE_ANGLE_UNIT ( ) SI_UNIT ( $, .RADIAN. ) );
#82 = FILL_AREA_STYLE ('',( #338 ) ) ;
#83 = ORIENTED_EDGE ( 'NONE', *, *, #31, .F. ) ;
#84 = SURFACE_STYLE_USAGE ( .BOTH. , #260 ) ;
#85 = PRODUCT_DEFINITION_FORMATION_WITH_SPECIFIED_SOURCE ( 'ÈÎºÎ', '', #65, .NOT_KNOWN. ) ;
#86 = FILL_AREA_STYLE_COLOUR ( '', #218 ) ;
#87 = EDGE_CURVE ( 'NONE', #318, #93, #262, .T. ) ;
#88 = EDGE_CURVE ( 'NONE', #366, #168, #108, .T. ) ;
#89 = ORIENTED_EDGE ( 'NONE', *, *, #319, .T. ) ;
#90 = ORIENTED_EDGE ( 'NONE', *, *, #291, .F. ) ;
#91 = UNCERTAINTY_MEASURE_WITH_UNIT (LENGTH_MEASURE( 1.000000000000000100E-005 ), #253, 'distance_accuracy_value', 'NONE');
#92 = CLOSED_SHELL ( 'NONE', ( #176, #58, #200, #344, #78, #198 ) ) ;
#93 = VERTEX_POINT ( 'NONE', #208 ) ;
#94 = UNCERTAINTY_MEASURE_WITH_UNIT (LENGTH_MEASURE( 1.000000000000000100E-005 ), #287, 'distance_accuracy_value', 'NONE');
#95 = VECTOR ( 'NONE', #362, 1000.000000000000000 ) ;
#96 = LINE ( 'NONE', #301, #337 ) ;
#97 = VERTEX_POINT ( 'NONE', #105 ) ;
#98 = CARTESIAN_POINT ( 'NONE',  ( -74.99999999999987200, -24.99999999999996800, 0.0000000000000000000 ) ) ;
#99 = CARTESIAN_POINT ( 'NONE',  ( 0.0000000000000000000, 0.0000000000000000000, 12.50000000000000000 ) ) ;
#100 = AXIS2_PLACEMENT_3D ( 'NONE', #364, #148, #118 ) ;
#101 = CARTESIAN_POINT ( 'NONE',  ( -74.99999999999987200, -24.99999999999996800, 12.50000000000000000 ) ) ;
#102 = VECTOR ( 'NONE', #48, 1000.000000000000000 ) ;
#103 = EDGE_CURVE ( 'NONE', #93, #68, #324, .T. ) ;
#104 = ORIENTED_EDGE ( 'NONE', *, *, #351, .T. ) ;
#105 = CARTESIAN_POINT ( 'NONE',  ( 75.00000000000012800, -24.99999999999996800, 0.0000000000000000000 ) ) ;
#106 = CARTESIAN_POINT ( 'NONE',  ( -74.99999999999987200, -24.99999999999996800, 0.0000000000000000000 ) ) ;
#107 = PLANE ( 'NONE',  #46 ) ;
#108 = LINE ( 'NONE', #187, #195 ) ;
#109 = CARTESIAN_POINT ( 'NONE',  ( 0.0000000000000000000, 0.0000000000000000000, -12.50000000000000000 ) ) ;
#110 = EDGE_CURVE ( 'NONE', #114, #236, #249, .T. ) ;
#111 = DIRECTION ( 'NONE',  ( 0.0000000000000000000, 1.000000000000000000, -0.0000000000000000000 ) ) ;
#112 = CARTESIAN_POINT ( 'NONE',  ( 75.00000000000012800, -24.99999999999996800, 12.50000000000000000 ) ) ;
#113 = LINE ( 'NONE', #194, #134 ) ;
#114 = VERTEX_POINT ( 'NONE', #40 ) ;
#115 = DIRECTION ( 'NONE',  ( 1.000000000000000000, 0.0000000000000000000, 0.0000000000000000000 ) ) ;
#116 = DIRECTION ( 'NONE',  ( -0.0000000000000000000, -0.0000000000000000000, -1.000000000000000000 ) ) ;
#117 =( NAMED_UNIT ( * ) PLANE_ANGLE_UNIT ( ) SI_UNIT ( $, .RADIAN. ) );
#118 = DIRECTION ( 'NONE',  ( 0.0000000000000000000, 0.0000000000000000000, -1.000000000000000000 ) ) ;
#119 = FACE_OUTER_BOUND ( 'NONE', #210, .T. ) ;
#120 = ADVANCED_FACE ( 'NONE', ( #188 ), #252, .T. ) ;
#121 = EDGE_CURVE ( 'NONE', #114, #318, #5, .T. ) ;
#122 = MECHANICAL_DESIGN_GEOMETRIC_PRESENTATION_REPRESENTATION (  '', ( #244 ), #267 ) ;
#123 = VECTOR ( 'NONE', #116, 1000.000000000000000 ) ;
#124 = ORIENTED_EDGE ( 'NONE', *, *, #87, .T. ) ;
#125 =( NAMED_UNIT ( * ) SI_UNIT ( $, .STERADIAN. ) SOLID_ANGLE_UNIT ( ) );
#126 = FACE_OUTER_BOUND ( 'NONE', #321, .T. ) ;
#127 = AXIS2_PLACEMENT_3D ( 'NONE', #101, #159, #211 ) ;
#128 = PRESENTATION_STYLE_ASSIGNMENT (( #50 ) ) ;
#129 = STYLED_ITEM ( 'NONE', ( #10 ), #345 ) ;
#130 = VECTOR ( 'NONE', #9, 1000.000000000000000 ) ;
#131 = CLOSED_SHELL ( 'NONE', ( #55, #173, #290, #143, #257, #120 ) ) ;
#132 = DIRECTION ( 'NONE',  ( -0.0000000000000000000, -0.0000000000000000000, -1.000000000000000000 ) ) ;
#133 = CARTESIAN_POINT ( 'NONE',  ( -74.99999999999987200, 25.00000000000002100, 0.0000000000000000000 ) ) ;
#134 = VECTOR ( 'NONE', #21, 1000.000000000000000 ) ;
#135 = DIRECTION ( 'NONE',  ( 0.0000000000000000000, 0.0000000000000000000, 1.000000000000000000 ) ) ;
#136 = UNCERTAINTY_MEASURE_WITH_UNIT (LENGTH_MEASURE( 1.000000000000000100E-005 ), #175, 'distance_accuracy_value', 'NONE');
#137 = DIRECTION ( 'NONE',  ( 0.0000000000000000000, -0.0000000000000000000, -1.000000000000000000 ) ) ;
#138 = PLANE ( 'NONE',  #147 ) ;
#139 = LINE ( 'NONE', #11, #130 ) ;
#140 = DIRECTION ( 'NONE',  ( 1.000000000000000000, 0.0000000000000000000, 0.0000000000000000000 ) ) ;
#141 = VERTEX_POINT ( 'NONE', #37 ) ;
#142 = FILL_AREA_STYLE_COLOUR ( '', #269 ) ;
#143 = ADVANCED_FACE ( 'NONE', ( #23 ), #138, .F. ) ;
#144 =( NAMED_UNIT ( * ) SI_UNIT ( $, .STERADIAN. ) SOLID_ANGLE_UNIT ( ) );
#145 = EDGE_LOOP ( 'NONE', ( #230, #295, #308, #63 ) ) ;
#146 = DIRECTION ( 'NONE',  ( 0.0000000000000000000, -1.000000000000000000, 0.0000000000000000000 ) ) ;
#147 = AXIS2_PLACEMENT_3D ( 'NONE', #309, #16, #75 ) ;
#148 = DIRECTION ( 'NONE',  ( 1.000000000000000000, 0.0000000000000000000, 0.0000000000000000000 ) ) ;
#149 = PRESENTATION_LAYER_ASSIGNMENT (  '', '', ( #129 ) ) ;
#150 = VECTOR ( 'NONE', #336, 1000.000000000000000 ) ;
#151 = EDGE_LOOP ( 'NONE', ( #235, #17, #67, #340 ) ) ;
#152 = MECHANICAL_DESIGN_GEOMETRIC_PRESENTATION_REPRESENTATION (  '', ( #172 ), #348 ) ;
#153 = LINE ( 'NONE', #112, #95 ) ;
#154 = VERTEX_POINT ( 'NONE', #280 ) ;
#155 = PRODUCT_DEFINITION_SHAPE ( 'NONE', 'NONE',  #2 ) ;
#156 = DIRECTION ( 'NONE',  ( -1.000000000000000000, 0.0000000000000000000, -0.0000000000000000000 ) ) ;
#157 = VECTOR ( 'NONE', #297, 1000.000000000000000 ) ;
#158 = ORIENTED_EDGE ( 'NONE', *, *, #19, .F. ) ;
#159 = DIRECTION ( 'NONE',  ( 0.0000000000000000000, 1.000000000000000000, 0.0000000000000000000 ) ) ;
#160 = DIRECTION ( 'NONE',  ( -1.000000000000000000, 0.0000000000000000000, 0.0000000000000000000 ) ) ;
#161 = DIRECTION ( 'NONE',  ( 1.000000000000000000, 0.0000000000000000000, 0.0000000000000000000 ) ) ;
#162 = LINE ( 'NONE', #255, #225 ) ;
#163 = EDGE_LOOP ( 'NONE', ( #51, #339, #212, #239 ) ) ;
#164 = CARTESIAN_POINT ( 'NONE',  ( -74.99999999999987200, 25.00000000000002100, 12.50000000000000000 ) ) ;
#165 = CARTESIAN_POINT ( 'NONE',  ( -74.99999999999987200, 25.00000000000002100, 12.50000000000000000 ) ) ;
#166 = FACE_OUTER_BOUND ( 'NONE', #64, .T. ) ;
#167 = PRESENTATION_LAYER_ASSIGNMENT (  '', '', ( #244 ) ) ;
#168 = VERTEX_POINT ( 'NONE', #304 ) ;
#169 = CARTESIAN_POINT ( 'NONE',  ( 75.00000000000012800, -24.99999999999996800, 0.0000000000000000000 ) ) ;
#170 = ORIENTED_EDGE ( 'NONE', *, *, #277, .F. ) ;
#171 = VERTEX_POINT ( 'NONE', #164 ) ;
#172 = STYLED_ITEM ( 'NONE', ( #128 ), #320 ) ;
#173 = ADVANCED_FACE ( 'NONE', ( #166 ), #193, .F. ) ;
#174 = CARTESIAN_POINT ( 'NONE',  ( -74.99999999999987200, -24.99999999999996800, 0.0000000000000000000 ) ) ;
#175 =( LENGTH_UNIT ( ) NAMED_UNIT ( * ) SI_UNIT ( .MILLI., .METRE. ) );
#176 = ADVANCED_FACE ( 'NONE', ( #49 ), #333, .F. ) ;
#177 = CARTESIAN_POINT ( 'NONE',  ( 75.00000000000012800, -24.99999999999996800, 12.50000000000000000 ) ) ;
#178 = LINE ( 'NONE', #73, #180 ) ;
#179 = ORIENTED_EDGE ( 'NONE', *, *, #87, .F. ) ;
#180 = VECTOR ( 'NONE', #251, 1000.000000000000000 ) ;
#181 = ORIENTED_EDGE ( 'NONE', *, *, #183, .F. ) ;
#182 = VECTOR ( 'NONE', #305, 1000.000000000000000 ) ;
#183 = EDGE_CURVE ( 'NONE', #93, #276, #204, .T. ) ;
#184 = AXIS2_PLACEMENT_3D ( 'NONE', #303, #44, #331 ) ;
#185 = PLANE ( 'NONE',  #66 ) ;
#186 = DIRECTION ( 'NONE',  ( -0.0000000000000000000, -0.0000000000000000000, -1.000000000000000000 ) ) ;
#187 = CARTESIAN_POINT ( 'NONE',  ( 75.00000000000012800, 25.00000000000002100, 12.50000000000000000 ) ) ;
#188 = FACE_OUTER_BOUND ( 'NONE', #32, .T. ) ;
#189 = ORIENTED_EDGE ( 'NONE', *, *, #88, .F. ) ;
#190 = CARTESIAN_POINT ( 'NONE',  ( -74.99999999999987200, 25.00000000000002100, 12.50000000000000000 ) ) ;
#191 = CARTESIAN_POINT ( 'NONE',  ( -74.99999999999987200, -24.99999999999996800, -12.50000000000000000 ) ) ;
#192 = DIRECTION ( 'NONE',  ( 1.000000000000000000, 0.0000000000000000000, -0.0000000000000000000 ) ) ;
#193 = PLANE ( 'NONE',  #53 ) ;
#194 = CARTESIAN_POINT ( 'NONE',  ( -74.99999999999987200, 25.00000000000002100, 12.50000000000000000 ) ) ;
#195 = VECTOR ( 'NONE', #132, 1000.000000000000000 ) ;
#196 = EDGE_LOOP ( 'NONE', ( #89, #39, #34, #205 ) ) ;
#197 = FILL_AREA_STYLE ('',( #86 ) ) ;
#198 = ADVANCED_FACE ( 'NONE', ( #293 ), #247, .F. ) ;
#199 = DIRECTION ( 'NONE',  ( 0.0000000000000000000, 0.0000000000000000000, 1.000000000000000000 ) ) ;
#200 = ADVANCED_FACE ( 'NONE', ( #265 ), #216, .F. ) ;
#201 = LINE ( 'NONE', #327, #349 ) ;
#202 = CARTESIAN_POINT ( 'NONE',  ( 75.00000000000012800, 25.00000000000002100, 0.0000000000000000000 ) ) ;
#203 = PRESENTATION_STYLE_ASSIGNMENT (( #84 ) ) ;
#204 = LINE ( 'NONE', #106, #182 ) ;
#205 = ORIENTED_EDGE ( 'NONE', *, *, #29, .F. ) ;
#206 = AXIS2_PLACEMENT_3D ( 'NONE', #278, #135, #192 ) ;
#207 = LINE ( 'NONE', #326, #306 ) ;
#208 = CARTESIAN_POINT ( 'NONE',  ( -74.99999999999987200, 25.00000000000002100, 0.0000000000000000000 ) ) ;
#209 = LINE ( 'NONE', #271, #358 ) ;
#210 = EDGE_LOOP ( 'NONE', ( #322, #226, #59, #275 ) ) ;
#211 = DIRECTION ( 'NONE',  ( 0.0000000000000000000, -0.0000000000000000000, 1.000000000000000000 ) ) ;
#212 = ORIENTED_EDGE ( 'NONE', *, *, #45, .T. ) ;
#213 = DIRECTION ( 'NONE',  ( -0.0000000000000000000, -0.0000000000000000000, -1.000000000000000000 ) ) ;
#214 = EDGE_CURVE ( 'NONE', #171, #141, #33, .T. ) ;
#215 = EDGE_LOOP ( 'NONE', ( #181, #302, #238, #170 ) ) ;
#216 = PLANE ( 'NONE',  #254 ) ;
#217 = PRODUCT_DEFINITION_CONTEXT ( 'detailed design', #263, 'design' ) ;
#218 = COLOUR_RGB ( '',0.7529411764705882200, 0.7529411764705882200, 0.7529411764705882200 ) ;
#219 = CARTESIAN_POINT ( 'NONE',  ( -74.99999999999987200, 25.00000000000002100, 12.50000000000000000 ) ) ;
#220 = LINE ( 'NONE', #227, #123 ) ;
#221 = CARTESIAN_POINT ( 'NONE',  ( 75.00000000000012800, -24.99999999999996800, 12.50000000000000000 ) ) ;
#222 = EDGE_LOOP ( 'NONE', ( #329, #296, #25, #72 ) ) ;
#223 = CARTESIAN_POINT ( 'NONE',  ( -74.99999999999987200, -24.99999999999996800, 0.0000000000000000000 ) ) ;
#224 =( NAMED_UNIT ( * ) PLANE_ANGLE_UNIT ( ) SI_UNIT ( $, .RADIAN. ) );
#225 = VECTOR ( 'NONE', #54, 1000.000000000000000 ) ;
#226 = ORIENTED_EDGE ( 'NONE', *, *, #45, .F. ) ;
#227 = CARTESIAN_POINT ( 'NONE',  ( -74.99999999999987200, -24.99999999999996800, 12.50000000000000000 ) ) ;
#228 = APPLICATION_PROTOCOL_DEFINITION ( 'draft international standard', 'automotive_design', 1998, #263 ) ;
#229 = LINE ( 'NONE', #191, #102 ) ;
#230 = ORIENTED_EDGE ( 'NONE', *, *, #88, .T. ) ;
#231 = DIRECTION ( 'NONE',  ( 0.0000000000000000000, 0.0000000000000000000, 1.000000000000000000 ) ) ;
#232 = PRESENTATION_LAYER_ASSIGNMENT (  '', '', ( #172 ) ) ;
#233 = DIRECTION ( 'NONE',  ( 1.000000000000000000, 0.0000000000000000000, 0.0000000000000000000 ) ) ;
#234 = EDGE_CURVE ( 'NONE', #168, #141, #178, .T. ) ;
#235 = ORIENTED_EDGE ( 'NONE', *, *, #121, .F. ) ;
#236 = VERTEX_POINT ( 'NONE', #281 ) ;
#237 = DIRECTION ( 'NONE',  ( -0.0000000000000000000, -1.000000000000000000, -0.0000000000000000000 ) ) ;
#238 = ORIENTED_EDGE ( 'NONE', *, *, #258, .T. ) ;
#239 = ORIENTED_EDGE ( 'NONE', *, *, #110, .F. ) ;
#240 = DIRECTION ( 'NONE',  ( 0.0000000000000000000, 0.0000000000000000000, 1.000000000000000000 ) ) ;
#241 = CARTESIAN_POINT ( 'NONE',  ( -74.99999999999987200, 25.00000000000002100, -12.50000000000000000 ) ) ;
#242 = ORIENTED_EDGE ( 'NONE', *, *, #103, .F. ) ;
#243 = DIRECTION ( 'NONE',  ( 0.0000000000000000000, 1.000000000000000000, 0.0000000000000000000 ) ) ;
#244 = STYLED_ITEM ( 'NONE', ( #203 ), #354 ) ;
#245 = DIRECTION ( 'NONE',  ( 0.0000000000000000000, 0.0000000000000000000, -1.000000000000000000 ) ) ;
#246 = DIRECTION ( 'NONE',  ( 0.0000000000000000000, -1.000000000000000000, 0.0000000000000000000 ) ) ;
#247 = PLANE ( 'NONE',  #335 ) ;
#248 = COLOUR_RGB ( '',0.7529411764705882200, 0.7529411764705882200, 0.7529411764705882200 ) ;
#249 = LINE ( 'NONE', #71, #328 ) ;
#250 = ORIENTED_EDGE ( 'NONE', *, *, #80, .F. ) ;
#251 = DIRECTION ( 'NONE',  ( -1.000000000000000000, 0.0000000000000000000, 0.0000000000000000000 ) ) ;
#252 = PLANE ( 'NONE',  #184 ) ;
#253 =( LENGTH_UNIT ( ) NAMED_UNIT ( * ) SI_UNIT ( .MILLI., .METRE. ) );
#254 = AXIS2_PLACEMENT_3D ( 'NONE', #74, #140, #245 ) ;
#255 = CARTESIAN_POINT ( 'NONE',  ( -74.99999999999987200, 25.00000000000002100, -12.50000000000000000 ) ) ;
#256 = EDGE_LOOP ( 'NONE', ( #347, #6, #294, #83 ) ) ;
#257 = ADVANCED_FACE ( 'NONE', ( #119 ), #107, .T. ) ;
#258 = EDGE_CURVE ( 'NONE', #68, #361, #229, .T. ) ;
#259 = FILL_AREA_STYLE ('',( #142 ) ) ;
#260 = SURFACE_SIDE_STYLE ('',( #350 ) ) ;
#261 = APPLICATION_PROTOCOL_DEFINITION ( 'draft international standard', 'automotive_design', 1998, #56 ) ;
#262 = LINE ( 'NONE', #133, #157 ) ;
#263 = APPLICATION_CONTEXT ( 'automotive_design' ) ;
#264 =( GEOMETRIC_REPRESENTATION_CONTEXT ( 3 ) GLOBAL_UNCERTAINTY_ASSIGNED_CONTEXT ( ( #136 ) ) GLOBAL_UNIT_ASSIGNED_CONTEXT ( ( #175, #314, #27 ) ) REPRESENTATION_CONTEXT ( 'NONE', 'WORKASPACE' ) );
#265 = FACE_OUTER_BOUND ( 'NONE', #256, .T. ) ;
#266 = VERTEX_POINT ( 'NONE', #221 ) ;
#267 =( GEOMETRIC_REPRESENTATION_CONTEXT ( 3 ) GLOBAL_UNCERTAINTY_ASSIGNED_CONTEXT ( ( #94 ) ) GLOBAL_UNIT_ASSIGNED_CONTEXT ( ( #287, #117, #125 ) ) REPRESENTATION_CONTEXT ( 'NONE', 'WORKASPACE' ) );
#268 = EDGE_CURVE ( 'NONE', #366, #171, #113, .T. ) ;
#269 = COLOUR_RGB ( '',0.7529411764705882200, 0.7529411764705882200, 0.7529411764705882200 ) ;
#270 = PLANE ( 'NONE',  #127 ) ;
#271 = CARTESIAN_POINT ( 'NONE',  ( 75.00000000000012800, 25.00000000000002100, 12.50000000000000000 ) ) ;
#272 = SURFACE_STYLE_FILL_AREA ( #82 ) ;
#273 = DIRECTION ( 'NONE',  ( 0.0000000000000000000, 0.0000000000000000000, -1.000000000000000000 ) ) ;
#274 = VECTOR ( 'NONE', #146, 1000.000000000000000 ) ;
#275 = ORIENTED_EDGE ( 'NONE', *, *, #351, .F. ) ;
#276 = VERTEX_POINT ( 'NONE', #283 ) ;
#277 = EDGE_CURVE ( 'NONE', #276, #361, #76, .T. ) ;
#278 = CARTESIAN_POINT ( 'NONE',  ( 0.0000000000000000000, 0.0000000000000000000, 0.0000000000000000000 ) ) ;
#279 = FACE_OUTER_BOUND ( 'NONE', #215, .T. ) ;
#280 = CARTESIAN_POINT ( 'NONE',  ( -74.99999999999987200, -24.99999999999996800, 12.50000000000000000 ) ) ;
#281 = CARTESIAN_POINT ( 'NONE',  ( 75.00000000000012800, -24.99999999999996800, -12.50000000000000000 ) ) ;
#282 = EDGE_CURVE ( 'NONE', #236, #285, #30, .T. ) ;
#283 = CARTESIAN_POINT ( 'NONE',  ( -74.99999999999987200, -24.99999999999996800, 0.0000000000000000000 ) ) ;
#284 = VECTOR ( 'NONE', #111, 1000.000000000000000 ) ;
#285 = VERTEX_POINT ( 'NONE', #42 ) ;
#286 = SURFACE_SIDE_STYLE ('',( #272 ) ) ;
#287 =( LENGTH_UNIT ( ) NAMED_UNIT ( * ) SI_UNIT ( .MILLI., .METRE. ) );
#288 = VECTOR ( 'NONE', #213, 1000.000000000000000 ) ;
#289 = UNCERTAINTY_MEASURE_WITH_UNIT (LENGTH_MEASURE( 1.000000000000000100E-005 ), #311, 'distance_accuracy_value', 'NONE');
#290 = ADVANCED_FACE ( 'NONE', ( #279 ), #367, .F. ) ;
#291 = EDGE_CURVE ( 'NONE', #141, #356, #355, .T. ) ;
#292 = DIRECTION ( 'NONE',  ( -0.0000000000000000000, -0.0000000000000000000, -1.000000000000000000 ) ) ;
#293 = FACE_OUTER_BOUND ( 'NONE', #145, .T. ) ;
#294 = ORIENTED_EDGE ( 'NONE', *, *, #319, .F. ) ;
#295 = ORIENTED_EDGE ( 'NONE', *, *, #234, .T. ) ;
#296 = ORIENTED_EDGE ( 'NONE', *, *, #268, .T. ) ;
#297 = DIRECTION ( 'NONE',  ( -1.000000000000000000, 0.0000000000000000000, 0.0000000000000000000 ) ) ;
#298 = LINE ( 'NONE', #174, #38 ) ;
#299 = AXIS2_PLACEMENT_3D ( 'NONE', #99, #273, #156 ) ;
#300 = ORIENTED_EDGE ( 'NONE', *, *, #234, .F. ) ;
#301 = CARTESIAN_POINT ( 'NONE',  ( 75.00000000000012800, -24.99999999999996800, 12.50000000000000000 ) ) ;
#302 = ORIENTED_EDGE ( 'NONE', *, *, #103, .T. ) ;
#303 = CARTESIAN_POINT ( 'NONE',  ( 0.0000000000000000000, 0.0000000000000000000, 0.0000000000000000000 ) ) ;
#304 = CARTESIAN_POINT ( 'NONE',  ( 75.00000000000012800, 25.00000000000002100, 0.0000000000000000000 ) ) ;
#305 = DIRECTION ( 'NONE',  ( 0.0000000000000000000, -1.000000000000000000, 0.0000000000000000000 ) ) ;
#306 = VECTOR ( 'NONE', #8, 1000.000000000000000 ) ;
#307 = DIRECTION ( 'NONE',  ( 0.0000000000000000000, -1.000000000000000000, 0.0000000000000000000 ) ) ;
#308 = ORIENTED_EDGE ( 'NONE', *, *, #214, .F. ) ;
#309 = CARTESIAN_POINT ( 'NONE',  ( -74.99999999999987200, -24.99999999999996800, 12.50000000000000000 ) ) ;
#310 = AXIS2_PLACEMENT_3D ( 'NONE', #177, #22, #199 ) ;
#311 =( LENGTH_UNIT ( ) NAMED_UNIT ( * ) SI_UNIT ( .MILLI., .METRE. ) );
#312 = ORIENTED_EDGE ( 'NONE', *, *, #183, .T. ) ;
#313 = EDGE_CURVE ( 'NONE', #276, #114, #298, .T. ) ;
#314 =( NAMED_UNIT ( * ) PLANE_ANGLE_UNIT ( ) SI_UNIT ( $, .RADIAN. ) );
#315 = CARTESIAN_POINT ( 'NONE',  ( -74.99999999999987200, -24.99999999999996800, -12.50000000000000000 ) ) ;
#316 = CARTESIAN_POINT ( 'NONE',  ( -74.99999999999987200, -24.99999999999996800, 0.0000000000000000000 ) ) ;
#317 = VECTOR ( 'NONE', #161, 1000.000000000000000 ) ;
#318 = VERTEX_POINT ( 'NONE', #202 ) ;
#319 = EDGE_CURVE ( 'NONE', #154, #356, #220, .T. ) ;
#320 = MANIFOLD_SOLID_BREP ( '·Ö¸î1[2]', #131 ) ;
#321 = EDGE_LOOP ( 'NONE', ( #12, #4, #189, #158 ) ) ;
#322 = ORIENTED_EDGE ( 'NONE', *, *, #282, .F. ) ;
#323 = SHAPE_DEFINITION_REPRESENTATION ( #155, #354 ) ;
#324 = LINE ( 'NONE', #190, #288 ) ;
#325 = ORIENTED_EDGE ( 'NONE', *, *, #62, .T. ) ;
#326 = CARTESIAN_POINT ( 'NONE',  ( -74.99999999999987200, -24.99999999999996800, -12.50000000000000000 ) ) ;
#327 = CARTESIAN_POINT ( 'NONE',  ( -74.99999999999987200, -24.99999999999996800, 12.50000000000000000 ) ) ;
#328 = VECTOR ( 'NONE', #13, 1000.000000000000000 ) ;
#329 = ORIENTED_EDGE ( 'NONE', *, *, #19, .T. ) ;
#330 = DIRECTION ( 'NONE',  ( 0.0000000000000000000, -0.0000000000000000000, -1.000000000000000000 ) ) ;
#331 = DIRECTION ( 'NONE',  ( 1.000000000000000000, 0.0000000000000000000, -0.0000000000000000000 ) ) ;
#332 = VECTOR ( 'NONE', #28, 1000.000000000000000 ) ;
#333 = PLANE ( 'NONE',  #206 ) ;
#334 = EDGE_CURVE ( 'NONE', #266, #97, #153, .T. ) ;
#335 = AXIS2_PLACEMENT_3D ( 'NONE', #165, #307, #330 ) ;
#336 = DIRECTION ( 'NONE',  ( -0.0000000000000000000, -0.0000000000000000000, -1.000000000000000000 ) ) ;
#337 = VECTOR ( 'NONE', #243, 1000.000000000000000 ) ;
#338 = FILL_AREA_STYLE_COLOUR ( '', #248 ) ;
#339 = ORIENTED_EDGE ( 'NONE', *, *, #277, .T. ) ;
#340 = ORIENTED_EDGE ( 'NONE', *, *, #62, .F. ) ;
#341 = SURFACE_SIDE_STYLE ('',( #346 ) ) ;
#342 = LINE ( 'NONE', #353, #15 ) ;
#343 =( NAMED_UNIT ( * ) SI_UNIT ( $, .STERADIAN. ) SOLID_ANGLE_UNIT ( ) );
#344 = ADVANCED_FACE ( 'NONE', ( #126 ), #52, .F. ) ;
#345 = MANIFOLD_SOLID_BREP ( '·Ö¸î1[1]', #92 ) ;
#346 = SURFACE_STYLE_FILL_AREA ( #259 ) ;
#347 = ORIENTED_EDGE ( 'NONE', *, *, #214, .T. ) ;
#348 =( GEOMETRIC_REPRESENTATION_CONTEXT ( 3 ) GLOBAL_UNCERTAINTY_ASSIGNED_CONTEXT ( ( #91 ) ) GLOBAL_UNIT_ASSIGNED_CONTEXT ( ( #253, #81, #343 ) ) REPRESENTATION_CONTEXT ( 'NONE', 'WORKASPACE' ) );
#349 = VECTOR ( 'NONE', #237, 1000.000000000000000 ) ;
#350 = SURFACE_STYLE_FILL_AREA ( #197 ) ;
#351 = EDGE_CURVE ( 'NONE', #285, #68, #162, .T. ) ;
#352 = MECHANICAL_DESIGN_GEOMETRIC_PRESENTATION_REPRESENTATION (  '', ( #129 ), #41 ) ;
#353 = CARTESIAN_POINT ( 'NONE',  ( -74.99999999999987200, -24.99999999999996800, 12.50000000000000000 ) ) ;
#354 = ADVANCED_BREP_SHAPE_REPRESENTATION ( 'Ä¥µ¶×©', ( #345, #320, #20 ), #264 ) ;
#355 = LINE ( 'NONE', #316, #274 ) ;
#356 = VERTEX_POINT ( 'NONE', #223 ) ;
#357 = CARTESIAN_POINT ( 'NONE',  ( 75.00000000000012800, -24.99999999999996800, 12.50000000000000000 ) ) ;
#358 = VECTOR ( 'NONE', #186, 1000.000000000000000 ) ;
#359 = CARTESIAN_POINT ( 'NONE',  ( -74.99999999999987200, -24.99999999999996800, 12.50000000000000000 ) ) ;
#360 = LINE ( 'NONE', #98, #317 ) ;
#361 = VERTEX_POINT ( 'NONE', #315 ) ;
#362 = DIRECTION ( 'NONE',  ( -0.0000000000000000000, -0.0000000000000000000, -1.000000000000000000 ) ) ;
#363 = PRODUCT_RELATED_PRODUCT_CATEGORY ( 'part', '', ( #65 ) ) ;
#364 = CARTESIAN_POINT ( 'NONE',  ( -74.99999999999987200, -24.99999999999996800, 12.50000000000000000 ) ) ;
#365 = ORIENTED_EDGE ( 'NONE', *, *, #69, .F. ) ;
#366 = VERTEX_POINT ( 'NONE', #26 ) ;
#367 = PLANE ( 'NONE',  #100 ) ;
ENDSEC;
END-ISO-10303-21;
